  0
SECTION
  2
HEADER
  9
$ACADVER
  1
AC1024
  9
$ACADMAINTVER
 70
   226
  9
$DWGCODEPAGE
  3
ANSI_932
  9
$LASTSAVEDBY
  1
E2358A
  9
$INSBASE
 10
0.0
 20
0.0
 30
0.0
  9
$EXTMIN
 10
5.927674038251439
 20
7.267456552092312
 30
-0.0000000349181948
  9
$EXTMAX
 10
74.06419415756147
 20
107.0027164334929
 30
0.0000000814935746
  9
$LIMMIN
 10
0.0
 20
0.0
  9
$LIMMAX
 10
297.0
 20
210.0
  9
$ORTHOMODE
 70
     0
  9
$REGENMODE
 70
     1
  9
$FILLMODE
 70
     1
  9
$QTEXTMODE
 70
     0
  9
$MIRRTEXT
 70
     1
  9
$LTSCALE
 40
1.0
  9
$ATTMODE
 70
     1
  9
$TEXTSIZE
 40
3.149999999999999
  9
$TRACEWID
 40
0.05
  9
$TEXTSTYLE
  7
STANDARD
  9
$CLAYER
  8
0
  9
$CELTYPE
  6
ByLayer
  9
$CECOLOR
 62
   256
  9
$CELTSCALE
 40
1.0
  9
$DISPSILH
 70
     0
  9
$DIMSCALE
 40
1.0
  9
$DIMASZ
 40
0.18
  9
$DIMEXO
 40
0.0625
  9
$DIMDLI
 40
0.38
  9
$DIMRND
 40
0.0
  9
$DIMDLE
 40
0.0
  9
$DIMEXE
 40
0.18
  9
$DIMTP
 40
0.0
  9
$DIMTM
 40
0.0
  9
$DIMTXT
 40
0.18
  9
$DIMCEN
 40
0.09
  9
$DIMTSZ
 40
0.0
  9
$DIMTOL
 70
     0
  9
$DIMLIM
 70
     0
  9
$DIMTIH
 70
     0
  9
$DIMTOH
 70
     1
  9
$DIMSE1
 70
     0
  9
$DIMSE2
 70
     0
  9
$DIMTAD
 70
     0
  9
$DIMZIN
 70
     8
  9
$DIMBLK
  1

  9
$DIMASO
 70
     1
  9
$DIMSHO
 70
     1
  9
$DIMPOST
  1

  9
$DIMAPOST
  1

  9
$DIMALT
 70
     0
  9
$DIMALTD
 70
     2
  9
$DIMALTF
 40
25.4
  9
$DIMLFAC
 40
1.0
  9
$DIMTOFL
 70
     0
  9
$DIMTVP
 40
0.0
  9
$DIMTIX
 70
     0
  9
$DIMSOXD
 70
     0
  9
$DIMSAH
 70
     0
  9
$DIMBLK1
  1

  9
$DIMBLK2
  1

  9
$DIMSTYLE
  2
Standard
  9
$DIMCLRD
 70
     0
  9
$DIMCLRE
 70
     0
  9
$DIMCLRT
 70
     0
  9
$DIMTFAC
 40
1.0
  9
$DIMGAP
 40
0.09
  9
$DIMJUST
 70
     0
  9
$DIMSD1
 70
     0
  9
$DIMSD2
 70
     0
  9
$DIMTOLJ
 70
     1
  9
$DIMTZIN
 70
     0
  9
$DIMALTZ
 70
     0
  9
$DIMALTTZ
 70
     0
  9
$DIMUPT
 70
     0
  9
$DIMDEC
 70
     4
  9
$DIMTDEC
 70
     4
  9
$DIMALTU
 70
     2
  9
$DIMALTTD
 70
     2
  9
$DIMTXSTY
  7
STANDARD
  9
$DIMAUNIT
 70
     0
  9
$DIMADEC
 70
     0
  9
$DIMALTRND
 40
0.0
  9
$DIMAZIN
 70
     2
  9
$DIMDSEP
 70
    46
  9
$DIMATFIT
 70
     3
  9
$DIMFRAC
 70
     0
  9
$DIMLDRBLK
  1

  9
$DIMLUNIT
 70
     2
  9
$DIMLWD
 70
    -2
  9
$DIMLWE
 70
    -2
  9
$DIMTMOVE
 70
     0
  9
$DIMFXL
 40
1.0
  9
$DIMFXLON
 70
     0
  9
$DIMJOGANG
 40
0.7853981633974483
  9
$DIMTFILL
 70
     0
  9
$DIMTFILLCLR
 70
     0
  9
$DIMARCSYM
 70
     0
  9
$DIMLTYPE
  6

  9
$DIMLTEX1
  6

  9
$DIMLTEX2
  6

  9
$DIMTXTDIRECTION
 70
     0
  9
$LUNITS
 70
     2
  9
$LUPREC
 70
     6
  9
$SKETCHINC
 40
0.1
  9
$FILLETRAD
 40
0.0
  9
$AUNITS
 70
     0
  9
$AUPREC
 70
     2
  9
$MENU
  1
ACAD
  9
$ELEVATION
 40
0.0
  9
$PELEVATION
 40
0.0
  9
$THICKNESS
 40
0.0
  9
$LIMCHECK
 70
     0
  9
$CHAMFERA
 40
0.0
  9
$CHAMFERB
 40
0.0
  9
$CHAMFERC
 40
0.0
  9
$CHAMFERD
 40
0.0
  9
$SKPOLY
 70
     0
  9
$TDCREATE
 40
2451277.438020833
  9
$TDUCREATE
 40
2451277.063021875
  9
$TDUPDATE
 40
2459775.645208333
  9
$TDUUPDATE
 40
2459775.270208333
  9
$TDINDWG
 40
0.0319702546
  9
$TDUSRTIMER
 40
0.0319702546
  9
$USRTIMER
 70
     1
  9
$ANGBASE
 50
0.0
  9
$ANGDIR
 70
     0
  9
$PDMODE
 70
     0
  9
$PDSIZE
 40
0.0
  9
$PLINEWID
 40
0.0
  9
$SPLFRAME
 70
     0
  9
$SPLINETYPE
 70
     6
  9
$SPLINESEGS
 70
     8
  9
$HANDSEED
  5
17A36
  9
$SURFTAB1
 70
     6
  9
$SURFTAB2
 70
     6
  9
$SURFTYPE
 70
     6
  9
$SURFU
 70
     6
  9
$SURFV
 70
     6
  9
$UCSBASE
  2

  9
$UCSNAME
  2

  9
$UCSORG
 10
0.0
 20
0.0
 30
0.0
  9
$UCSXDIR
 10
1.0
 20
0.0
 30
0.0
  9
$UCSYDIR
 10
0.0
 20
1.0
 30
0.0
  9
$UCSORTHOREF
  2

  9
$UCSORTHOVIEW
 70
     0
  9
$UCSORGTOP
 10
0.0
 20
0.0
 30
0.0
  9
$UCSORGBOTTOM
 10
0.0
 20
0.0
 30
0.0
  9
$UCSORGLEFT
 10
0.0
 20
0.0
 30
0.0
  9
$UCSORGRIGHT
 10
0.0
 20
0.0
 30
0.0
  9
$UCSORGFRONT
 10
0.0
 20
0.0
 30
0.0
  9
$UCSORGBACK
 10
0.0
 20
0.0
 30
0.0
  9
$PUCSBASE
  2

  9
$PUCSNAME
  2

  9
$PUCSORG
 10
0.0
 20
0.0
 30
0.0
  9
$PUCSXDIR
 10
1.0
 20
0.0
 30
0.0
  9
$PUCSYDIR
 10
0.0
 20
1.0
 30
0.0
  9
$PUCSORTHOREF
  2

  9
$PUCSORTHOVIEW
 70
     0
  9
$PUCSORGTOP
 10
0.0
 20
0.0
 30
0.0
  9
$PUCSORGBOTTOM
 10
0.0
 20
0.0
 30
0.0
  9
$PUCSORGLEFT
 10
0.0
 20
0.0
 30
0.0
  9
$PUCSORGRIGHT
 10
0.0
 20
0.0
 30
0.0
  9
$PUCSORGFRONT
 10
0.0
 20
0.0
 30
0.0
  9
$PUCSORGBACK
 10
0.0
 20
0.0
 30
0.0
  9
$USERI1
 70
     0
  9
$USERI2
 70
     0
  9
$USERI3
 70
     0
  9
$USERI4
 70
     0
  9
$USERI5
 70
     0
  9
$USERR1
 40
0.0
  9
$USERR2
 40
0.0
  9
$USERR3
 40
0.0
  9
$USERR4
 40
0.0
  9
$USERR5
 40
0.0
  9
$WORLDVIEW
 70
     1
  9
$SHADEDGE
 70
     3
  9
$SHADEDIF
 70
    70
  9
$TILEMODE
 70
     1
  9
$MAXACTVP
 70
    16
  9
$PINSBASE
 10
0.0
 20
0.0
 30
0.0
  9
$PLIMCHECK
 70
     0
  9
$PEXTMIN
 10
0.0
 20
0.0
 30
0.0
  9
$PEXTMAX
 10
0.0
 20
0.0
 30
0.0
  9
$PLIMMIN
 10
0.0
 20
0.0
  9
$PLIMMAX
 10
12.0
 20
9.0
  9
$UNITMODE
 70
     0
  9
$VISRETAIN
 70
     0
  9
$PLINEGEN
 70
     0
  9
$PSLTSCALE
 70
     1
  9
$TREEDEPTH
 70
  3020
  9
$CMLSTYLE
  2
Standard
  9
$CMLJUST
 70
     0
  9
$CMLSCALE
 40
1.0
  9
$PROXYGRAPHICS
 70
     1
  9
$MEASUREMENT
 70
     0
  9
$CELWEIGHT
370
    -1
  9
$ENDCAPS
280
     0
  9
$JOINSTYLE
280
     0
  9
$LWDISPLAY
290
     0
  9
$INSUNITS
 70
     0
  9
$HYPERLINKBASE
  1

  9
$STYLESHEET
  1

  9
$XEDIT
290
     1
  9
$CEPSNTYPE
380
     0
  9
$PSTYLEMODE
290
     1
  9
$FINGERPRINTGUID
  2
{0791BF39-4863-11D7-B40E-00E000040FE5}
  9
$VERSIONGUID
  2
{594733E9-CA5B-1248-BB1D-5E767C0E9BC5}
  9
$EXTNAMES
290
     1
  9
$PSVPSCALE
 40
0.0
  9
$OLESTARTUP
290
     0
  9
$SORTENTS
280
   127
  9
$INDEXCTL
280
     0
  9
$HIDETEXT
280
     0
  9
$XCLIPFRAME
280
     2
  9
$HALOGAP
280
     0
  9
$OBSCOLOR
 70
   257
  9
$OBSLTYPE
280
     0
  9
$INTERSECTIONDISPLAY
280
     0
  9
$INTERSECTIONCOLOR
 70
   257
  9
$DIMASSOC
280
     1
  9
$PROJECTNAME
  1

  9
$CAMERADISPLAY
290
     0
  9
$LENSLENGTH
 40
50.0
  9
$CAMERAHEIGHT
 40
0.0
  9
$STEPSPERSEC
 40
2.0
  9
$STEPSIZE
 40
6.0
  9
$3DDWFPREC
 40
2.0
  9
$PSOLWIDTH
 40
0.25
  9
$PSOLHEIGHT
 40
4.0
  9
$LOFTANG1
 40
1.570796326794896
  9
$LOFTANG2
 40
1.570796326794896
  9
$LOFTMAG1
 40
0.0
  9
$LOFTMAG2
 40
0.0
  9
$LOFTPARAM
 70
     7
  9
$LOFTNORMALS
280
     1
  9
$LATITUDE
 40
37.795
  9
$LONGITUDE
 40
-122.394
  9
$NORTHDIRECTION
 40
0.0
  9
$TIMEZONE
 70
 -8000
  9
$LIGHTGLYPHDISPLAY
280
     1
  9
$TILEMODELIGHTSYNCH
280
     1
  9
$CMATERIAL
347
17997
  9
$SOLIDHIST
280
     0
  9
$SHOWHIST
280
     1
  9
$DWFFRAME
280
     2
  9
$DGNFRAME
280
     0
  9
$REALWORLDSCALE
290
     1
  9
$INTERFERECOLOR
 62
     1
  9
$INTERFEREOBJVS
345
179B9
  9
$INTERFEREVPVS
346
179B6
  9
$CSHADOW
280
     0
  9
$SHADOWPLANELOCATION
 40
0.0
  0
ENDSEC
  0
SECTION
  2
CLASSES
  0
CLASS
  1
ACDBDICTIONARYWDFLT
  2
AcDbDictionaryWithDefault
  3
ObjectDBX Classes
 90
        0
 91
        1
280
     0
281
     0
  0
CLASS
  1
MATERIAL
  2
AcDbMaterial
  3
ObjectDBX Classes
 90
     1153
 91
        3
280
     0
281
     0
  0
CLASS
  1
VISUALSTYLE
  2
AcDbVisualStyle
  3
ObjectDBX Classes
 90
     4095
 91
       24
280
     0
281
     0
  0
CLASS
  1
TABLESTYLE
  2
AcDbTableStyle
  3
ObjectDBX Classes
 90
     4095
 91
        1
280
     0
281
     0
  0
CLASS
  1
SCALE
  2
AcDbScale
  3
ObjectDBX Classes
 90
     1153
 91
        1
280
     0
281
     0
  0
CLASS
  1
MLEADERSTYLE
  2
AcDbMLeaderStyle
  3
ACDB_MLEADERSTYLE_CLASS
 90
     4095
 91
        1
280
     0
281
     0
  0
CLASS
  1
ACDBSECTIONVIEWSTYLE
  2
AcDbSectionViewStyle
  3
ObjectDBX Classes
 90
     1025
 91
        1
280
     0
281
     0
  0
CLASS
  1
ACDBDETAILVIEWSTYLE
  2
AcDbDetailViewStyle
  3
ObjectDBX Classes
 90
     1025
 91
        1
280
     0
281
     0
  0
CLASS
  1
DICTIONARYVAR
  2
AcDbDictionaryVar
  3
ObjectDBX Classes
 90
        0
 91
       18
280
     0
281
     0
  0
CLASS
  1
CELLSTYLEMAP
  2
AcDbCellStyleMap
  3
ObjectDBX Classes
 90
     1152
 91
        1
280
     0
281
     0
  0
ENDSEC
  0
SECTION
  2
TABLES
  0
TABLE
  2
VPORT
  5
DE6E
330
0
100
AcDbSymbolTable
 70
     1
  0
VPORT
  5
17994
330
DE6E
100
AcDbSymbolTableRecord
100
AcDbViewportTableRecord
  2
*Active
 70
     0
 10
0.0
 20
0.0
 11
1.0
 21
1.0
 12
39.99593409790647
 22
57.13508649279259
 13
0.0
 23
0.0
 14
1.0
 24
1.0
 15
5.0
 25
5.0
 16
0.0
 26
0.0
 36
1.0
 17
0.0
 27
0.0
 37
0.0
 40
100.4650300756547
 41
2.277167277167277
 42
50.0
 43
0.0
 44
0.0
 50
0.0
 51
0.0
 71
     0
 72
   100
 73
     1
 74
     1
 75
     0
 76
     0
 77
     0
 78
     0
281
     0
 65
     1
110
0.0
120
0.0
130
0.0
111
1.0
121
0.0
131
0.0
112
0.0
122
1.0
132
0.0
 79
     0
146
0.0
348
179B5
 60
     3
 61
     5
292
     1
282
     1
141
0.0
142
0.0
 63
   250
421
  3355443
1001
ACAD_NAV_VCDISPLAY
1070
     3
  0
ENDTAB
  0
TABLE
  2
LTYPE
  5
DE6B
330
0
100
AcDbSymbolTable
 70
     3
  0
LTYPE
  5
DE79
330
DE6B
100
AcDbSymbolTableRecord
100
AcDbLinetypeTableRecord
  2
ByBlock
 70
     0
  3

 72
    65
 73
     0
 40
0.0
  0
LTYPE
  5
DE7A
330
DE6B
100
AcDbSymbolTableRecord
100
AcDbLinetypeTableRecord
  2
ByLayer
 70
     0
  3

 72
    65
 73
     0
 40
0.0
  0
LTYPE
  5
DE7B
330
DE6B
100
AcDbSymbolTableRecord
100
AcDbLinetypeTableRecord
  2
CONTINUOUS
 70
     0
  3
Solid line
 72
    65
 73
     0
 40
0.0
  0
ENDTAB
  0
TABLE
  2
LAYER
  5
DE68
330
0
100
AcDbSymbolTable
 70
     1
  0
LAYER
  5
DE76
102
{ACAD_XDICTIONARY
360
179E6
102
}
330
DE68
100
AcDbSymbolTableRecord
100
AcDbLayerTableRecord
  2
0
 70
     0
 62
     7
  6
CONTINUOUS
370
    -3
390
DE75
347
179A7
  0
ENDTAB
  0
TABLE
  2
STYLE
  5
DE69
330
0
100
AcDbSymbolTable
 70
     1
  0
STYLE
  5
DE77
330
DE69
100
AcDbSymbolTableRecord
100
AcDbTextStyleTableRecord
  2
STANDARD
 70
     0
 40
0.0
 41
1.0
 50
0.0
 71
     0
 42
3.149999999999999
  3
romans.shx
  4
bigfont.shx
  0
ENDTAB
  0
TABLE
  2
VIEW
  5
DE6C
330
0
100
AcDbSymbolTable
 70
     0
  0
ENDTAB
  0
TABLE
  2
UCS
  5
DE6D
330
0
100
AcDbSymbolTable
 70
     0
  0
ENDTAB
  0
TABLE
  2
APPID
  5
DE6F
330
0
100
AcDbSymbolTable
 70
     6
  0
APPID
  5
DE78
330
DE6F
100
AcDbSymbolTableRecord
100
AcDbRegAppTableRecord
  2
ACAD
 70
     0
  0
APPID
  5
179DA
330
DE6F
100
AcDbSymbolTableRecord
100
AcDbRegAppTableRecord
  2
ACAD_EXEMPT_FROM_CAD_STANDARDS
 70
     0
  0
APPID
  5
179DD
330
DE6F
100
AcDbSymbolTableRecord
100
AcDbRegAppTableRecord
  2
AcadAnnoPO
 70
     0
  0
APPID
  5
179DF
330
DE6F
100
AcDbSymbolTableRecord
100
AcDbRegAppTableRecord
  2
ACAD_DSTYLE_DIMJAG
 70
     0
  0
APPID
  5
179E0
330
DE6F
100
AcDbSymbolTableRecord
100
AcDbRegAppTableRecord
  2
ACAD_DSTYLE_DIMTALN
 70
     0
  0
APPID
  5
179E8
330
DE6F
100
AcDbSymbolTableRecord
100
AcDbRegAppTableRecord
  2
ACAD_NAV_VCDISPLAY
 70
     0
  0
ENDTAB
  0
TABLE
  2
DIMSTYLE
  5
DE70
330
0
100
AcDbSymbolTable
 70
     1
100
AcDbDimStyleTable
 71
     1
340
DE9A
  0
DIMSTYLE
105
DE9A
330
DE70
100
AcDbSymbolTableRecord
100
AcDbDimStyleTableRecord
  2
Standard
 70
     0
 73
     0
 78
     8
 79
     2
340
DE77
1001
ACAD_DSTYLE_DIMJAG
1070
   388
1040
1.5
1001
ACAD_DSTYLE_DIMTALN
1070
   392
1070
     0
  0
ENDTAB
  0
TABLE
  2
BLOCK_RECORD
  5
DE67
330
0
100
AcDbSymbolTable
 70
     2
  0
BLOCK_RECORD
  5
DE84
102
{ACAD_XDICTIONARY
360
DEA8
102
}
330
DE67
100
AcDbSymbolTableRecord
100
AcDbBlockTableRecord
  2
*Model_Space
340
DE87
 70
     0
280
     1
281
     0
  0
BLOCK_RECORD
  5
179E1
330
DE67
100
AcDbSymbolTableRecord
100
AcDbBlockTableRecord
  2
*Paper_Space
340
179E2
 70
     0
280
     1
281
     0
  0
ENDTAB
  0
ENDSEC
  0
SECTION
  2
BLOCKS
  0
BLOCK
  5
DE95
330
DE84
100
AcDbEntity
  8
0
100
AcDbBlockBegin
  2
*Model_Space
 70
     0
 10
0.0
 20
0.0
 30
0.0
  3
*Model_Space
  1

  0
ENDBLK
  5
DE96
330
DE84
100
AcDbEntity
  8
0
100
AcDbBlockEnd
  0
BLOCK
  5
179E3
330
179E1
100
AcDbEntity
 67
     1
  8
0
100
AcDbBlockBegin
  2
*Paper_Space
 70
     0
 10
0.0
 20
0.0
 30
0.0
  3
*Paper_Space
  1

  0
ENDBLK
  5
179E4
330
179E1
100
AcDbEntity
 67
     1
  8
0
100
AcDbBlockEnd
  0
ENDSEC
  0
SECTION
  2
ENTITIES
  0
TEXT
  5
8A64
330
DE84
100
AcDbEntity
  8
0
100
AcDbText
 10
23.25000000000001
 20
16.72499999999999
 30
0.0
 40
3.149999999999999
  1
耐圧防爆型
100
AcDbText
  0
ARC
  5
14549
330
DE84
100
AcDbEntity
  8
0
100
AcDbCircle
 10
18.49999999999997
 20
73.25
 30
0.0
 40
6.4
100
AcDbArc
 50
325.4753174849934
 51
34.52468251500656
  0
LINE
  5
1454A
330
DE84
100
AcDbEntity
  8
0
100
AcDbLine
 10
20.12829000000002
 20
76.0
 30
0.0
 11
22.17335999999997
 21
73.07934
 31
0.0
  0
LINE
  5
1454B
330
DE84
100
AcDbEntity
  8
0
100
AcDbLine
 10
18.29810999999998
 20
75.00952000000006
 30
0.0
 11
16.54637999999997
 21
70.80128000000013
 31
0.0
  0
LINE
  5
1454C
330
DE84
100
AcDbEntity
  8
0
100
AcDbLine
 10
16.46076000000002
 20
70.85734000000002
 30
0.0
 11
17.87709999999995
 21
74.97136999999998
 31
0.0
  0
LINE
  5
1454D
330
DE84
100
AcDbEntity
  8
0
100
AcDbLine
 10
17.00145
 20
75.45593000000008
 30
0.0
 11
15.79144999999997
 21
71.06117999999992
 31
0.0
  0
LINE
  5
1454E
330
DE84
100
AcDbEntity
  8
0
100
AcDbLine
 10
15.89344000000003
 20
71.05265000000009
 30
0.0
 11
17.30976000000001
 21
75.16669000000002
 31
0.0
  0
ARC
  5
1454F
330
DE84
100
AcDbEntity
  8
0
100
AcDbCircle
 10
18.49999999999997
 20
73.25
 30
0.0
 40
6.4
100
AcDbArc
 50
145.4753174849934
 51
214.5245989381099
  0
LINE
  5
14550
330
DE84
100
AcDbEntity
  8
0
100
AcDbLine
 10
13.82663999999997
 20
73.07934
 30
0.0
 11
15.87170999999998
 21
76.0
 31
0.0
  0
ARC
  5
14551
330
DE84
100
AcDbEntity
  8
0
100
AcDbCircle
 10
61.49999999999997
 20
73.25
 30
0.0
 40
6.4
100
AcDbArc
 50
325.4753174849934
 51
34.52468251500656
  0
LINE
  5
14552
330
DE84
100
AcDbEntity
  8
0
100
AcDbLine
 10
63.12829000000002
 20
76.0
 30
0.0
 11
65.17335999999997
 21
73.07934
 31
0.0
  0
LINE
  5
14553
330
DE84
100
AcDbEntity
  8
0
100
AcDbLine
 10
61.29810999999998
 20
75.00952000000006
 30
0.0
 11
59.54637999999997
 21
70.80128000000013
 31
0.0
  0
LINE
  5
14554
330
DE84
100
AcDbEntity
  8
0
100
AcDbLine
 10
59.46076000000002
 20
70.85734000000002
 30
0.0
 11
60.87709999999995
 21
74.97136999999998
 31
0.0
  0
LINE
  5
14555
330
DE84
100
AcDbEntity
  8
0
100
AcDbLine
 10
60.00145
 20
75.45593000000008
 30
0.0
 11
58.79144999999997
 21
71.06117999999992
 31
0.0
  0
LINE
  5
14556
330
DE84
100
AcDbEntity
  8
0
100
AcDbLine
 10
58.89344000000003
 20
71.05265000000009
 30
0.0
 11
60.30976000000001
 21
75.16669000000002
 31
0.0
  0
ARC
  5
14557
330
DE84
100
AcDbEntity
  8
0
100
AcDbCircle
 10
61.49999999999997
 20
73.25
 30
0.0
 40
6.4
100
AcDbArc
 50
145.4753174849934
 51
214.5245989381099
  0
LINE
  5
14558
330
DE84
100
AcDbEntity
  8
0
100
AcDbLine
 10
56.82663999999997
 20
73.07934
 30
0.0
 11
58.87170999999998
 21
76.0
 31
0.0
  0
CIRCLE
  5
14585
330
DE84
100
AcDbEntity
  8
0
100
AcDbCircle
 10
7.849999999999994
 20
73.25
 30
0.0
 40
0.525
  0
LINE
  5
14587
330
DE84
100
AcDbEntity
  8
0
100
AcDbLine
 10
29.99999999999997
 20
76.15000000000009
 30
0.0
 11
29.99999999999997
 21
70.34999999999991
 31
0.0
  0
LINE
  5
14588
330
DE84
100
AcDbEntity
  8
0
100
AcDbLine
 10
28.1
 20
76.75
 30
0.0
 11
28.1
 21
69.75
 31
0.0
  0
LINE
  5
14589
330
DE84
100
AcDbEntity
  8
0
100
AcDbLine
 10
9.999999999999971
 20
79.25
 30
0.0
 11
9.999999999999971
 21
67.25
 31
0.0
  0
ARC
  5
1458A
330
DE84
100
AcDbEntity
  8
0
100
AcDbCircle
 10
20.99999999999997
 20
73.25
 30
0.0
 40
12.0
100
AcDbArc
 50
156.4435356908919
 51
203.556464309108
  0
LINE
  5
1458B
330
DE84
100
AcDbEntity
  8
0
100
AcDbLine
 10
6.650000000000005
 20
75.15000000000009
 30
0.0
 11
6.650000000000005
 21
71.3499999999999
 31
0.0
  0
CIRCLE
  5
1458D
330
DE84
100
AcDbEntity
  8
0
100
AcDbCircle
 10
72.15
 20
73.25
 30
0.0
 40
0.525
  0
ARC
  5
1458E
330
DE84
100
AcDbEntity
  8
0
100
AcDbCircle
 10
58.99999999999997
 20
73.25
 30
0.0
 40
12.0
100
AcDbArc
 50
336.4435356908919
 51
23.55646430910807
  0
LINE
  5
1458F
330
DE84
100
AcDbEntity
  8
0
100
AcDbLine
 10
69.99999999999997
 20
79.25
 30
0.0
 11
69.99999999999997
 21
67.25
 31
0.0
  0
LINE
  5
14590
330
DE84
100
AcDbEntity
  8
0
100
AcDbLine
 10
73.34999999999999
 20
75.15000000000009
 30
0.0
 11
73.34999999999999
 21
71.3499999999999
 31
0.0
  0
LINE
  5
14591
330
DE84
100
AcDbEntity
  8
0
100
AcDbLine
 10
51.90000000000001
 20
76.75
 30
0.0
 11
51.90000000000001
 21
69.75
 31
0.0
  0
LINE
  5
14592
330
DE84
100
AcDbEntity
  8
0
100
AcDbLine
 10
49.99999999999997
 20
76.15000000000009
 30
0.0
 11
49.99999999999997
 21
70.34999999999991
 31
0.0
  0
ARC
  5
14593
330
DE84
100
AcDbEntity
  8
0
100
AcDbCircle
 10
48.37031892922388
 20
73.8499999999999
 30
0.0
 40
0.3
100
AcDbArc
 50
270.0
 51
356.9879063773977
  0
ARC
  5
14594
330
DE84
100
AcDbEntity
  8
0
100
AcDbCircle
 10
39.99999999999997
 20
73.25
 30
0.0
 40
5.9
100
AcDbArc
 50
334.0314409251152
 51
25.96855907488477
  0
LINE
  5
14595
330
DE84
100
AcDbEntity
  8
0
100
AcDbLine
 10
49.99999999999997
 20
76.0
 30
0.0
 11
49.99999999999997
 21
70.5
 31
0.0
  0
ARC
  5
14596
330
DE84
100
AcDbEntity
  8
0
100
AcDbCircle
 10
39.99999999999997
 20
73.25
 30
0.0
 40
6.75
100
AcDbArc
 50
330.17362750394
 51
29.82637249605999
  0
ARC
  5
14597
330
DE84
100
AcDbEntity
  8
0
100
AcDbCircle
 10
31.62968107077612
 20
73.8499999999999
 30
0.0
 40
0.3
100
AcDbArc
 50
183.0120936226023
 51
270.0
  0
LINE
  5
14598
330
DE84
100
AcDbEntity
  8
0
100
AcDbLine
 10
29.99999999999997
 20
76.0
 30
0.0
 11
29.99999999999997
 21
70.5
 31
0.0
  0
ARC
  5
14599
330
DE84
100
AcDbEntity
  8
0
100
AcDbCircle
 10
39.99999999999997
 20
73.25
 30
0.0
 40
6.75
100
AcDbArc
 50
150.17362750394
 51
209.82637249606
  0
ARC
  5
1459A
330
DE84
100
AcDbEntity
  8
0
100
AcDbCircle
 10
39.99999999999997
 20
73.25
 30
0.0
 40
5.9
100
AcDbArc
 50
154.0314409251152
 51
205.9685590748848
  0
CIRCLE
  5
1459B
330
DE84
100
AcDbEntity
  8
0
100
AcDbCircle
 10
39.99999999999997
 20
73.25
 30
0.0
 40
4.75
  0
LINE
  5
1459D
330
DE84
100
AcDbEntity
  8
0
100
AcDbLine
 10
5.950000000000017
 20
106.0999999999999
 30
0.0
 11
5.950000000000017
 21
22.0
 31
0.0
  0
LINE
  5
1459E
330
DE84
100
AcDbEntity
  8
0
100
AcDbLine
 10
74.04999999999998
 20
106.0999999999999
 30
0.0
 11
74.04999999999998
 21
22.0
 31
0.0
  0
LINE
  5
145A1
330
DE84
100
AcDbEntity
  8
0
100
AcDbLine
 10
70.24999999999997
 20
33.59999999999991
 30
0.0
 11
70.24999999999997
 21
22.0
 31
0.0
  0
ARC
  5
145A2
330
DE84
100
AcDbEntity
  8
0
100
AcDbCircle
 10
28.49999999999997
 20
26.5
 30
0.0
 40
7.5
100
AcDbArc
 50
0.0
 51
52.02012755513782
  0
ARC
  5
145A3
330
DE84
100
AcDbEntity
  8
0
100
AcDbCircle
 10
51.49999999999997
 20
26.5
 30
0.0
 40
7.5
100
AcDbArc
 50
127.9798724448621
 51
180.0
  0
LINE
  5
145A4
330
DE84
100
AcDbEntity
  8
0
100
AcDbLine
 10
9.749999999999971
 20
33.59999999999991
 30
0.0
 11
9.749999999999971
 21
22.0
 31
0.0
  0
ARC
  5
145A5
330
DE84
100
AcDbEntity
  8
0
100
AcDbCircle
 10
7.849999999999994
 20
24.0
 30
0.0
 40
0.7000000000000001
100
AcDbArc
 50
0.0
 51
180.0
  0
LINE
  5
145A7
330
DE84
100
AcDbEntity
  8
0
100
AcDbLine
 10
8.549999999999982
 20
22.0
 30
0.0
 11
9.749999999999971
 21
22.0
 31
0.0
  0
LINE
  5
145A8
330
DE84
100
AcDbEntity
  8
0
100
AcDbLine
 10
5.950000000000017
 20
22.0
 30
0.0
 11
7.150000000000005
 21
22.0
 31
0.0
  0
LINE
  5
145A9
330
DE84
100
AcDbEntity
  8
0
100
AcDbLine
 10
8.549999999999982
 20
24.0
 30
0.0
 11
8.549999999999982
 21
22.0
 31
0.0
  0
LINE
  5
145AB
330
DE84
100
AcDbEntity
  8
0
100
AcDbLine
 10
7.150000000000005
 20
24.0
 30
0.0
 11
7.150000000000005
 21
22.0
 31
0.0
  0
LINE
  5
145AC
330
DE84
100
AcDbEntity
  8
0
100
AcDbLine
 10
36.29999999999999
 20
25.0
 30
0.0
 11
43.70000000000001
 21
25.0
 31
0.0
  0
ARC
  5
145AD
330
DE84
100
AcDbEntity
  8
0
100
AcDbCircle
 10
36.29999999999999
 20
25.29999999999996
 30
0.0
 40
0.3
100
AcDbArc
 50
180.0
 51
270.0
  0
LINE
  5
145AE
330
DE84
100
AcDbEntity
  8
0
100
AcDbLine
 10
35.99999999999997
 20
26.5
 30
0.0
 11
35.99999999999997
 21
25.29999999999996
 31
0.0
  0
ARC
  5
145AF
330
DE84
100
AcDbEntity
  8
0
100
AcDbCircle
 10
43.70000000000001
 20
25.29999999999996
 30
0.0
 40
0.3
100
AcDbArc
 50
270.0
 51
0.0
  0
LINE
  5
145B0
330
DE84
100
AcDbEntity
  8
0
100
AcDbLine
 10
43.99999999999997
 20
26.5
 30
0.0
 11
43.99999999999997
 21
25.29999999999996
 31
0.0
  0
ARC
  5
145B1
330
DE84
100
AcDbEntity
  8
0
100
AcDbCircle
 10
72.15
 20
24.0
 30
0.0
 40
0.7000000000000001
100
AcDbArc
 50
0.0
 51
180.0
  0
LINE
  5
145B3
330
DE84
100
AcDbEntity
  8
0
100
AcDbLine
 10
72.85
 20
22.0
 30
0.0
 11
74.04999999999998
 21
22.0
 31
0.0
  0
LINE
  5
145B4
330
DE84
100
AcDbEntity
  8
0
100
AcDbLine
 10
70.24999999999997
 20
22.0
 30
0.0
 11
71.45000000000002
 21
22.0
 31
0.0
  0
LINE
  5
145B5
330
DE84
100
AcDbEntity
  8
0
100
AcDbLine
 10
70.24999999999997
 20
22.0
 30
0.0
 11
71.45000000000002
 21
22.0
 31
0.0
  0
LINE
  5
145B7
330
DE84
100
AcDbEntity
  8
0
100
AcDbLine
 10
71.45000000000002
 20
24.0
 30
0.0
 11
71.45000000000002
 21
22.0
 31
0.0
  0
LINE
  5
145B8
330
DE84
100
AcDbEntity
  8
0
100
AcDbLine
 10
72.85
 20
24.0
 30
0.0
 11
72.85
 21
22.0
 31
0.0
  0
ARC
  5
145B9
330
DE84
100
AcDbEntity
  8
0
100
AcDbCircle
 10
54.90000000000001
 20
69.75
 30
0.0
 40
3.0
100
AcDbArc
 50
180.0
 51
270.0
  0
ARC
  5
145BA
330
DE84
100
AcDbEntity
  8
0
100
AcDbCircle
 10
54.90000000000001
 20
63.25
 30
0.0
 40
3.0
100
AcDbArc
 50
90.0
 51
180.0
  0
ARC
  5
145BB
330
DE84
100
AcDbEntity
  8
0
100
AcDbCircle
 10
54.90000000000001
 20
56.25
 30
0.0
 40
3.0
100
AcDbArc
 50
180.0
 51
270.0
  0
LINE
  5
145BE
330
DE84
100
AcDbEntity
  8
0
100
AcDbLine
 10
48.96109207923828
 20
37.40000000000009
 30
0.0
 11
73.95000000000002
 21
37.40000000000009
 31
0.0
  0
LINE
  5
145BF
330
DE84
100
AcDbEntity
  8
0
100
AcDbLine
 10
48.01073174514138
 20
33.59999999999991
 30
0.0
 11
73.95000000000002
 21
33.59999999999991
 31
0.0
  0
LINE
  5
145C0
330
DE84
100
AcDbEntity
  8
0
100
AcDbLine
 10
9.749999999999971
 20
55.57417672787756
 30
0.0
 11
9.749999999999971
 21
37.40000000000009
 31
0.0
  0
LINE
  5
145C1
330
DE84
100
AcDbEntity
  8
0
100
AcDbLine
 10
30.99999999999997
 20
51.0
 30
0.0
 11
30.99999999999997
 21
36.74695076595958
 31
0.0
  0
LINE
  5
145C2
330
DE84
100
AcDbEntity
  8
0
100
AcDbLine
 10
48.99999999999997
 20
51.0
 30
0.0
 11
48.99999999999997
 21
36.74695076595958
 31
0.0
  0
LINE
  5
145C3
330
DE84
100
AcDbEntity
  8
0
100
AcDbLine
 10
6.049999999999982
 20
33.59999999999991
 30
0.0
 11
31.98926825485862
 21
33.59999999999991
 31
0.0
  0
LINE
  5
145C4
330
DE84
100
AcDbEntity
  8
0
100
AcDbLine
 10
6.049999999999982
 20
37.40000000000009
 30
0.0
 11
31.03890792076172
 21
37.40000000000009
 31
0.0
  0
CIRCLE
  5
145C5
330
DE84
100
AcDbEntity
  8
0
100
AcDbCircle
 10
7.849999999999994
 20
35.5
 30
0.0
 40
0.65
  0
LINE
  5
145C8
330
DE84
100
AcDbEntity
  8
0
100
AcDbLine
 10
6.049999999999982
 20
33.59999999999991
 30
0.0
 11
6.049999999999982
 21
37.40000000000009
 31
0.0
  0
CIRCLE
  5
145C9
330
DE84
100
AcDbEntity
  8
0
100
AcDbCircle
 10
39.99999999999997
 20
40.0
 30
0.0
 40
4.75
  0
ARC
  5
145CA
330
DE84
100
AcDbEntity
  8
0
100
AcDbCircle
 10
39.99999999999997
 20
40.0
 30
0.0
 40
8.099999999999999
100
AcDbArc
 50
147.7910826850034
 51
212.2089173149966
  0
ARC
  5
145CB
330
DE84
100
AcDbEntity
  8
0
100
AcDbCircle
 10
39.99999999999997
 20
40.0
 30
0.0
 40
7.2
100
AcDbArc
 50
150.9256799854505
 51
209.0743200145495
  0
ARC
  5
145CC
330
DE84
100
AcDbEntity
  8
0
100
AcDbCircle
 10
39.99999999999997
 20
40.0
 30
0.0
 40
8.099999999999999
100
AcDbArc
 50
327.7910826850034
 51
32.20891731499661
  0
ARC
  5
145CD
330
DE84
100
AcDbEntity
  8
0
100
AcDbCircle
 10
39.99999999999997
 20
40.0
 30
0.0
 40
7.2
100
AcDbArc
 50
330.9256799854505
 51
29.07432001454949
  0
ARC
  5
145CE
330
DE84
100
AcDbEntity
  8
0
100
AcDbCircle
 10
36.75479857412367
 20
33.57281805878415
 30
0.0
 40
1.0
100
AcDbArc
 50
63.20995686427546
 51
135.0000000000091
  0
ARC
  5
145CF
330
DE84
100
AcDbEntity
  8
0
100
AcDbCircle
 10
39.99999999999997
 20
40.0
 30
0.0
 40
8.099999999999999
100
AcDbArc
 50
237.7910826849888
 51
302.2089173150113
  0
ARC
  5
145D0
330
DE84
100
AcDbEntity
  8
0
100
AcDbCircle
 10
39.99999999999997
 20
40.0
 30
0.0
 40
7.2
100
AcDbArc
 50
240.9256799854505
 51
299.0743200145495
  0
ARC
  5
145D1
330
DE84
100
AcDbEntity
  8
0
100
AcDbCircle
 10
33.57281805878418
 20
36.7547985741237
 30
0.0
 40
1.0
100
AcDbArc
 50
315.0000000000091
 51
26.79004313571017
  0
ARC
  5
145D2
330
DE84
100
AcDbEntity
  8
0
100
AcDbCircle
 10
32.83328109039613
 20
36.01526160573553
 30
0.0
 40
1.0
100
AcDbArc
 50
315.0000000000091
 51
29.07432001454949
  0
ARC
  5
145D3
330
DE84
100
AcDbEntity
  8
0
100
AcDbCircle
 10
35.30952988014585
 20
32.55423005628336
 30
0.0
 40
0.7000000000000001
100
AcDbArc
 50
57.79108268498874
 51
132.6011727331311
  0
ARC
  5
145D4
330
DE84
100
AcDbEntity
  8
0
100
AcDbCircle
 10
36.01526160573551
 20
32.83328109039621
 30
0.0
 40
1.0
100
AcDbArc
 50
60.9256799854505
 51
135.0000000000091
  0
LINE
  5
145D5
330
DE84
100
AcDbEntity
  8
0
100
AcDbLine
 10
34.87347583639749
 20
33.10570888343113
 30
0.0
 11
36.04769179293717
 21
34.27992483997082
 31
0.0
  0
ARC
  5
145D6
330
DE84
100
AcDbEntity
  8
0
100
AcDbCircle
 10
32.55423005628327
 20
35.30952988014588
 30
0.0
 40
0.7000000000000001
100
AcDbArc
 50
317.3988272668597
 51
32.20891731499661
  0
ARC
  5
145D7
330
DE84
100
AcDbEntity
  8
0
100
AcDbCircle
 10
36.49999999999997
 20
36.74695076595958
 30
0.0
 40
5.5
100
AcDbArc
 50
180.0
 51
232.0201275551379
  0
ARC
  5
145D8
330
DE84
100
AcDbEntity
  8
0
100
AcDbCircle
 10
33.98959235991433
 20
33.98959235991424
 30
0.0
 40
1.25
100
AcDbArc
 50
135.0000000000091
 51
315.0000000000091
  0
CIRCLE
  5
145DB
330
DE84
100
AcDbEntity
  8
0
100
AcDbCircle
 10
33.98959235991433
 20
33.98959235991424
 30
0.0
 40
0.9
  0
CIRCLE
  5
145DC
330
DE84
100
AcDbEntity
  8
0
100
AcDbCircle
 10
33.98959235991433
 20
33.98959235991424
 30
0.0
 40
0.525
  0
LINE
  5
145DD
330
DE84
100
AcDbEntity
  8
0
100
AcDbLine
 10
33.10570888343117
 20
34.87347583639758
 30
0.0
 11
34.27992483997079
 21
36.04769179293726
 31
0.0
  0
ARC
  5
145DE
330
DE84
100
AcDbEntity
  8
0
100
AcDbCircle
 10
46.42718194121582
 20
36.7547985741237
 30
0.0
 40
1.0
100
AcDbArc
 50
153.2099568642898
 51
224.9999999999908
  0
ARC
  5
145DF
330
DE84
100
AcDbEntity
  8
0
100
AcDbCircle
 10
47.1667189096037
 20
36.01526160573553
 30
0.0
 40
1.0
100
AcDbArc
 50
150.9256799854505
 51
225.0000000000231
  0
LINE
  5
145E0
330
DE84
100
AcDbEntity
  8
0
100
AcDbLine
 10
46.89429111656884
 20
34.87347583639758
 30
0.0
 11
45.72007516002921
 21
36.04769179293726
 31
0.0
  0
ARC
  5
145E1
330
DE84
100
AcDbEntity
  8
0
100
AcDbCircle
 10
47.44576994371672
 20
35.30952988014588
 30
0.0
 40
0.7000000000000001
100
AcDbArc
 50
147.7910826850034
 51
222.6011727331403
  0
ARC
  5
145E3
330
DE84
100
AcDbEntity
  8
0
100
AcDbCircle
 10
43.49999999999996
 20
36.74695076595958
 30
0.0
 40
5.5
100
AcDbArc
 50
307.9798724448619
 51
0.0
  0
ARC
  5
145E4
330
DE84
100
AcDbEntity
  8
0
100
AcDbCircle
 10
46.01040764008567
 20
33.98959235991424
 30
0.0
 40
1.25
100
AcDbArc
 50
224.9999999999908
 51
44.99999999999085
  0
CIRCLE
  5
145E6
330
DE84
100
AcDbEntity
  8
0
100
AcDbCircle
 10
46.01040764008567
 20
33.98959235991424
 30
0.0
 40
0.525
  0
CIRCLE
  5
145E7
330
DE84
100
AcDbEntity
  8
0
100
AcDbCircle
 10
46.01040764008567
 20
33.98959235991424
 30
0.0
 40
0.9
  0
ARC
  5
145E8
330
DE84
100
AcDbEntity
  8
0
100
AcDbCircle
 10
43.24520142587627
 20
33.57281805878415
 30
0.0
 40
1.0
100
AcDbArc
 50
44.99999999999085
 51
116.7900431357245
  0
LINE
  5
145E9
330
DE84
100
AcDbEntity
  8
0
100
AcDbLine
 10
45.12652416360251
 20
33.10570888343113
 30
0.0
 11
43.95230820706283
 21
34.27992483997082
 31
0.0
  0
ARC
  5
145EA
330
DE84
100
AcDbEntity
  8
0
100
AcDbCircle
 10
43.98473839426443
 20
32.83328109039621
 30
0.0
 40
1.0
100
AcDbArc
 50
44.99999999999085
 51
119.0743200145495
  0
ARC
  5
145EB
330
DE84
100
AcDbEntity
  8
0
100
AcDbCircle
 10
44.69047011985409
 20
32.55423005628336
 30
0.0
 40
0.7000000000000001
100
AcDbArc
 50
47.39882726686883
 51
122.2089173150112
  0
ARC
  5
145EC
330
DE84
100
AcDbEntity
  8
0
100
AcDbCircle
 10
36.75479857412373
 20
46.42718194121562
 30
0.0
 40
1.0
100
AcDbArc
 50
224.9999999999908
 51
296.7900431357245
  0
ARC
  5
145ED
330
DE84
100
AcDbEntity
  8
0
100
AcDbCircle
 10
39.99999999999997
 20
40.0
 30
0.0
 40
7.2
100
AcDbArc
 50
60.9256799854505
 51
119.0743200145495
  0
ARC
  5
145EE
330
DE84
100
AcDbEntity
  8
0
100
AcDbCircle
 10
39.99999999999997
 20
40.0
 30
0.0
 40
8.099999999999999
100
AcDbArc
 50
57.79108268498874
 51
122.2089173150112
  0
ARC
  5
145F0
330
DE84
100
AcDbEntity
  8
0
100
AcDbCircle
 10
32.8332810903963
 20
43.98473839426446
 30
0.0
 40
1.0
100
AcDbArc
 50
330.9256799854505
 51
45.00000000002309
  0
ARC
  5
145F1
330
DE84
100
AcDbEntity
  8
0
100
AcDbCircle
 10
35.30952988014585
 20
47.44576994371664
 30
0.0
 40
0.7000000000000001
100
AcDbArc
 50
227.3988272668688
 51
302.2089173150113
  0
ARC
  5
145F2
330
DE84
100
AcDbEntity
  8
0
100
AcDbCircle
 10
36.01526160573556
 20
47.16671890960379
 30
0.0
 40
1.0
100
AcDbArc
 50
224.9999999999908
 51
299.0743200145495
  0
LINE
  5
145F3
330
DE84
100
AcDbEntity
  8
0
100
AcDbLine
 10
34.87347583639749
 20
46.89429111656886
 30
0.0
 11
36.04769179293717
 21
45.72007516002918
 31
0.0
  0
ARC
  5
145F4
330
DE84
100
AcDbEntity
  8
0
100
AcDbCircle
 10
33.57281805878418
 20
43.2452014258763
 30
0.0
 40
1.0
100
AcDbArc
 50
333.2099568642752
 51
44.99999999999085
  0
ARC
  5
145F5
330
DE84
100
AcDbEntity
  8
0
100
AcDbCircle
 10
32.55423005628327
 20
44.69047011985412
 30
0.0
 40
0.7000000000000001
100
AcDbArc
 50
327.7910826850034
 51
42.60117273314031
  0
CIRCLE
  5
145F6
330
DE84
100
AcDbEntity
  8
0
100
AcDbCircle
 10
33.98959235991433
 20
46.01040764008553
 30
0.0
 40
0.525
  0
CIRCLE
  5
145F7
330
DE84
100
AcDbEntity
  8
0
100
AcDbCircle
 10
33.98959235991433
 20
46.01040764008553
 30
0.0
 40
0.9
  0
LINE
  5
145FA
330
DE84
100
AcDbEntity
  8
0
100
AcDbLine
 10
33.10570888343117
 20
45.12652416360242
 30
0.0
 11
34.27992483997079
 21
43.95230820706274
 31
0.0
  0
ARC
  5
145FB
330
DE84
100
AcDbEntity
  8
0
100
AcDbCircle
 10
33.98959235991433
 20
46.01040764008553
 30
0.0
 40
1.25
100
AcDbArc
 50
44.99999999999085
 51
224.9999999999908
  0
CIRCLE
  5
145FC
330
DE84
100
AcDbEntity
  8
0
100
AcDbCircle
 10
46.01040764008556
 20
46.01040764008575
 30
0.0
 40
0.525
  0
ARC
  5
145FD
330
DE84
100
AcDbEntity
  8
0
100
AcDbCircle
 10
47.16671890960387
 20
43.98473839426446
 30
0.0
 40
1.0
100
AcDbArc
 50
135.0000000000091
 51
209.0743200145495
  0
CIRCLE
  5
14600
330
DE84
100
AcDbEntity
  8
0
100
AcDbCircle
 10
46.01040764008556
 20
46.01040764008575
 30
0.0
 40
0.9
  0
ARC
  5
14601
330
DE84
100
AcDbEntity
  8
0
100
AcDbCircle
 10
47.44576994371672
 20
44.69047011985412
 30
0.0
 40
0.7000000000000001
100
AcDbArc
 50
137.3988272668597
 51
212.2089173149966
  0
LINE
  5
14602
330
DE84
100
AcDbEntity
  8
0
100
AcDbLine
 10
46.89429111656884
 20
45.12652416360242
 30
0.0
 11
45.72007516002921
 21
43.95230820706274
 31
0.0
  0
ARC
  5
14603
330
DE84
100
AcDbEntity
  8
0
100
AcDbCircle
 10
46.4271819412157
 20
43.2452014258763
 30
0.0
 40
1.0
100
AcDbArc
 50
135.0000000000091
 51
206.7900431357102
  0
ARC
  5
14604
330
DE84
100
AcDbEntity
  8
0
100
AcDbCircle
 10
46.01040764008556
 20
46.01040764008575
 30
0.0
 40
1.25
100
AcDbArc
 50
315.0000000000091
 51
135.0000000000091
  0
ARC
  5
14605
330
DE84
100
AcDbEntity
  8
0
100
AcDbCircle
 10
43.24520142587627
 20
46.42718194121584
 30
0.0
 40
1.0
100
AcDbArc
 50
243.2099568642752
 51
315.0000000000091
  0
ARC
  5
14606
330
DE84
100
AcDbEntity
  8
0
100
AcDbCircle
 10
43.9847383942645
 20
47.16671890960379
 30
0.0
 40
1.0
100
AcDbArc
 50
240.9256799854505
 51
315.0000000000091
  0
LINE
  5
14607
330
DE84
100
AcDbEntity
  8
0
100
AcDbLine
 10
45.12652416360251
 20
46.89429111656886
 30
0.0
 11
43.95230820706283
 21
45.72007516002918
 31
0.0
  0
ARC
  5
14608
330
DE84
100
AcDbEntity
  8
0
100
AcDbCircle
 10
44.69047011985409
 20
47.44576994371664
 30
0.0
 40
0.7000000000000001
100
AcDbArc
 50
237.7910826849888
 51
312.6011727331309
  0
ARC
  5
14609
330
DE84
100
AcDbEntity
  8
0
100
AcDbCircle
 10
21.6
 20
62.25
 30
0.0
 40
1.899999
100
AcDbArc
 50
74.63968248079986
 51
144.6655407443235
  0
CIRCLE
  5
1460A
330
DE84
100
AcDbEntity
  8
0
100
AcDbCircle
 10
21.6
 20
62.25
 30
0.0
 40
1.4
  0
ARC
  5
1460B
330
DE84
100
AcDbEntity
  8
0
100
AcDbCircle
 10
18.49999999999997
 20
59.75
 30
0.0
 40
6.4
100
AcDbArc
 50
55.47531384321594
 51
124.5246825149912
  0
ARC
  5
1460C
330
DE84
100
AcDbEntity
  8
0
100
AcDbCircle
 10
17.9
 20
61.75
 30
0.0
 40
6.4
100
AcDbArc
 50
240.0995999999751
 51
299.9003000000168
  0
ARC
  5
1460D
330
DE84
100
AcDbEntity
  8
0
100
AcDbCircle
 10
18.49999999999997
 20
59.75
 30
0.0
 40
6.4
100
AcDbArc
 50
235.4752810195497
 51
304.5246825149913
  0
LINE
  5
1460E
330
DE84
100
AcDbEntity
  8
0
100
AcDbLine
 10
19.90148999999999
 20
61.50674000000003
 30
0.0
 11
21.6996
 21
58.93876999999998
 31
0.0
  0
ARC
  5
1460F
330
DE84
100
AcDbEntity
  8
0
100
AcDbCircle
 10
18.49999999999997
 20
73.25
 30
0.0
 40
6.4
100
AcDbArc
 50
235.4752810195497
 51
304.5246825149831
  0
ARC
  5
14610
330
DE84
100
AcDbEntity
  8
0
100
AcDbCircle
 10
17.99999999999997
 20
76.25
 30
0.0
 40
6.899999
100
AcDbArc
 50
238.4398000000107
 51
301.5601999999893
  0
LINE
  5
14611
330
DE84
100
AcDbEntity
  8
0
100
AcDbLine
 10
10.49999999999997
 20
66.25
 30
0.0
 11
25.1
 21
66.25
 31
0.0
  0
LINE
  5
14612
330
DE84
100
AcDbEntity
  8
0
100
AcDbLine
 10
10.49999999999997
 20
53.25
 30
0.0
 11
25.1
 21
53.25
 31
0.0
  0
LINE
  5
14613
330
DE84
100
AcDbEntity
  8
0
100
AcDbLine
 10
10.49999999999997
 20
66.75
 30
0.0
 11
25.1
 21
66.75
 31
0.0
  0
LWPOLYLINE
  5
14614
330
DE84
100
AcDbEntity
  8
0
100
AcDbPolyline
 90
        8
 70
     1
 43
0.0
 10
15.24999999999997
 20
61.5
 10
19.84999999999999
 20
61.5
 42
0.4142135623730951
 10
20.05000000000004
 20
61.70000000000005
 10
20.05000000000004
 20
63.80000000000018
 42
0.4142135623730895
 10
19.84999999999999
 20
64.0
 10
15.24999999999997
 20
64.00000000000023
 42
0.4142135623730951
 10
15.05000000000004
 20
63.80000000000018
 10
15.04999999999998
 20
61.70000000000005
 42
0.4142135623730951
  0
ARC
  5
14615
330
DE84
100
AcDbEntity
  8
0
100
AcDbCircle
 10
18.49999999999997
 20
59.75
 30
0.0
 40
6.4
100
AcDbArc
 50
145.4753174849934
 51
214.5245989381136
  0
LINE
  5
14616
330
DE84
100
AcDbEntity
  8
0
100
AcDbLine
 10
9.999999999999971
 20
65.75
 30
0.0
 11
9.999999999999971
 21
53.75
 31
0.0
  0
ARC
  5
14617
330
DE84
100
AcDbEntity
  8
0
100
AcDbCircle
 10
20.99999999999997
 20
59.75
 30
0.0
 40
12.0
100
AcDbArc
 50
156.4435356908919
 51
203.556464309108
  0
ARC
  5
14618
330
DE84
100
AcDbEntity
  8
0
100
AcDbCircle
 10
18.59360000000001
 20
60.19794000000001
 30
0.0
 40
0.6000000000000001
100
AcDbArc
 50
114.0796000000237
 51
151.4000000000236
  0
ARC
  5
14619
330
DE84
100
AcDbEntity
  8
0
100
AcDbCircle
 10
18.27854999999997
 20
60.19542999999998
 30
0.0
 40
0.7000000000000001
100
AcDbArc
 50
103.6856000000047
 51
155.0030999999903
  0
ARC
  5
1461A
330
DE84
100
AcDbEntity
  8
0
100
AcDbCircle
 10
17.9
 20
61.75
 30
0.0
 40
0.9
100
AcDbArc
 50
196.1275999999859
 51
206.3206000000066
  0
ARC
  5
1461B
330
DE84
100
AcDbEntity
  8
0
100
AcDbCircle
 10
17.9
 20
61.75
 30
0.0
 40
1.1
100
AcDbArc
 50
193.1365000000456
 51
195.9265999999735
  0
ARC
  5
1461C
330
DE84
100
AcDbEntity
  8
0
100
AcDbCircle
 10
16.26525999999998
 20
61.28350000000001
 30
0.0
 40
0.6000000000000001
100
AcDbArc
 50
338.6063000000295
 51
15.92661000004586
  0
ARC
  5
1461D
330
DE84
100
AcDbEntity
  8
0
100
AcDbCircle
 10
16.46588
 20
61.04057000000011
 30
0.0
 40
0.7000000000000001
100
AcDbArc
 50
335.0030999999903
 51
26.32058999995529
  0
ARC
  5
1461E
330
DE84
100
AcDbEntity
  8
0
100
AcDbCircle
 10
17.9
 20
61.75
 30
0.0
 40
0.9
100
AcDbArc
 50
283.685499999977
 51
343.8724000000141
  0
ARC
  5
1461F
330
DE84
100
AcDbEntity
  8
0
100
AcDbCircle
 10
17.9
 20
61.75
 30
0.0
 40
1.1
100
AcDbArc
 50
294.0795000000139
 51
346.86340000004
  0
ARC
  5
14621
330
DE84
100
AcDbEntity
  8
0
100
AcDbCircle
 10
15.53360999999998
 20
56.67454999999995
 30
0.0
 40
0.3999992
100
AcDbArc
 50
158.60640000004
 51
331.4002000000199
  0
ARC
  5
14622
330
DE84
100
AcDbEntity
  8
0
100
AcDbCircle
 10
15.65678
 20
57.84897999999998
 30
0.0
 40
1.899999
100
AcDbArc
 50
145.0000000000166
 51
240.0995999999751
  0
CIRCLE
  5
14623
330
DE84
100
AcDbEntity
  8
0
100
AcDbCircle
 10
13.72703172698763
 20
54.97703172698766
 30
0.0
 40
0.525
  0
CIRCLE
  5
14624
330
DE84
100
AcDbEntity
  8
0
100
AcDbCircle
 10
13.72702999999998
 20
54.97703999999998
 30
0.0
 40
1.25
  0
CIRCLE
  5
14625
330
DE84
100
AcDbEntity
  8
0
100
AcDbCircle
 10
13.72702999999998
 20
54.97703999999998
 30
0.0
 40
0.9
  0
ARC
  5
14627
330
DE84
100
AcDbEntity
  8
0
100
AcDbCircle
 10
15.53360999999998
 20
56.67454999999995
 30
0.0
 40
0.3
100
AcDbArc
 50
155.0033000000084
 51
335.0033000000084
  0
LWPOLYLINE
  5
14628
330
DE84
100
AcDbEntity
  8
0
100
AcDbPolyline
 90
        5
 70
     0
 43
0.0
 10
15.95000000000001
 20
56.60263663590012
 10
15.95000000000001
 20
56.45000000000004
 10
19.84999999999999
 20
56.45000000000004
 10
19.84999999999999
 20
58.05000000000018
 10
16.73912998593229
 20
58.05000000000018
  0
LINE
  5
14629
330
DE84
100
AcDbEntity
  8
0
100
AcDbLine
 10
14.10038999999997
 20
58.93877999999995
 30
0.0
 11
15.89378000000002
 21
61.5
 31
0.0
  0
LINE
  5
1462A
330
DE84
100
AcDbEntity
  8
0
100
AcDbLine
 10
15.26170999999996
 20
56.80131000000006
 30
0.0
 11
17.10031
 21
60.74477000000001
 31
0.0
  0
LINE
  5
1462B
330
DE84
100
AcDbEntity
  8
0
100
AcDbLine
 10
16.82392000000001
 20
61.06465000000003
 30
0.0
 11
15.16117
 21
56.82045999999991
 31
0.0
  0
LINE
  5
1462C
330
DE84
100
AcDbEntity
  8
0
100
AcDbLine
 10
18.06681999999998
 20
60.48514999999998
 30
0.0
 11
15.88480999999999
 21
56.48306999999999
 31
0.0
  0
LINE
  5
1462D
330
DE84
100
AcDbEntity
  8
0
100
AcDbLine
 10
15.80551999999997
 20
56.5477699999999
 30
0.0
 11
17.64412000000001
 21
60.49121999999989
 31
0.0
  0
CIRCLE
  5
1462E
330
DE84
100
AcDbEntity
  8
0
100
AcDbCircle
 10
7.849999999999994
 20
59.75
 30
0.0
 40
0.525
  0
ARC
  5
14630
330
DE84
100
AcDbEntity
  8
0
100
AcDbCircle
 10
10.49999999999997
 20
53.75
 30
0.0
 40
0.5
100
AcDbArc
 50
180.0
 51
270.0
  0
LINE
  5
14631
330
DE84
100
AcDbEntity
  8
0
100
AcDbLine
 10
6.650000000000005
 20
61.65000000000009
 30
0.0
 11
6.650000000000005
 21
57.84999999999991
 31
0.0
  0
LINE
  5
14632
330
DE84
100
AcDbEntity
  8
0
100
AcDbLine
 10
6.650000000000005
 20
61.65000000000009
 30
0.0
 11
9.151371387371426
 21
61.65000000000009
 31
0.0
  0
LINE
  5
14633
330
DE84
100
AcDbEntity
  8
0
100
AcDbLine
 10
6.650000000000005
 20
57.84999999999991
 30
0.0
 11
9.151371387371426
 21
57.84999999999991
 31
0.0
  0
CIRCLE
  5
14634
330
DE84
100
AcDbEntity
  8
0
100
AcDbCircle
 10
13.72703422698444
 20
64.52297577300169
 30
0.0
 40
0.525
  0
CIRCLE
  5
14635
330
DE84
100
AcDbEntity
  8
0
100
AcDbCircle
 10
13.72702999999998
 20
64.52296999999998
 30
0.0
 40
1.25
  0
CIRCLE
  5
14636
330
DE84
100
AcDbEntity
  8
0
100
AcDbCircle
 10
13.72702999999998
 20
64.52296999999998
 30
0.0
 40
0.9
  0
LWPOLYLINE
  5
14639
330
DE84
100
AcDbEntity
  8
0
100
AcDbPolyline
 90
        4
 70
     1
 43
0.0
 10
16.9
 20
64.0
 10
20.09999999999999
 20
64.0
 10
20.09999999999999
 20
65.5
 10
16.9
 20
65.5
  0
ARC
  5
1463A
330
DE84
100
AcDbEntity
  8
0
100
AcDbCircle
 10
15.38302999999999
 20
71.98955000000001
 30
0.0
 40
1.9
100
AcDbArc
 50
145.0000000000211
 51
238.4398000000107
  0
ARC
  5
1463B
330
DE84
100
AcDbEntity
  8
0
100
AcDbCircle
 10
16.17708999999999
 20
70.95498999999995
 30
0.0
 40
0.3999992
100
AcDbArc
 50
164.6064000000118
 51
337.4001000000156
  0
ARC
  5
1463C
330
DE84
100
AcDbEntity
  8
0
100
AcDbCircle
 10
16.17708999999999
 20
70.95498999999995
 30
0.0
 40
0.3
100
AcDbArc
 50
161.0032999999838
 51
341.0032999999837
  0
CIRCLE
  5
1463D
330
DE84
100
AcDbEntity
  8
0
100
AcDbCircle
 10
13.72702999999998
 20
68.47703999999999
 30
0.0
 40
0.9
  0
CIRCLE
  5
1463E
330
DE84
100
AcDbEntity
  8
0
100
AcDbCircle
 10
13.72703172698763
 20
68.47703172698766
 30
0.0
 40
0.525
  0
CIRCLE
  5
14641
330
DE84
100
AcDbEntity
  8
0
100
AcDbCircle
 10
13.72702999999998
 20
68.47703999999999
 30
0.0
 40
1.25
  0
LWPOLYLINE
  5
14642
330
DE84
100
AcDbEntity
  8
0
100
AcDbPolyline
 90
        3
 70
     0
 43
0.0
 10
16.05000000000004
 20
72.0002400103308
 10
16.05000000000004
 20
72.55000000000018
 10
16.2013646026509
 20
72.55000000000018
  0
LWPOLYLINE
  5
14643
330
DE84
100
AcDbEntity
  8
0
100
AcDbPolyline
 90
        4
 70
     0
 43
0.0
 10
17.27430551888673
 20
72.55000000000018
 10
19.95000000000002
 20
72.55000000000018
 10
19.95000000000002
 20
70.95000000000005
 10
16.6082864705435
 20
70.95000000000005
  0
ARC
  5
14644
330
DE84
100
AcDbEntity
  8
0
100
AcDbCircle
 10
10.49999999999997
 20
65.75
 30
0.0
 40
0.5
100
AcDbArc
 50
90.0
 51
180.0
  0
ARC
  5
14645
330
DE84
100
AcDbEntity
  8
0
100
AcDbCircle
 10
10.49999999999997
 20
67.25
 30
0.0
 40
0.5
100
AcDbArc
 50
180.0
 51
270.0
  0
LINE
  5
14646
330
DE84
100
AcDbEntity
  8
0
100
AcDbLine
 10
6.650000000000005
 20
71.3499999999999
 30
0.0
 11
9.151371387371426
 21
71.3499999999999
 31
0.0
  0
LINE
  5
14647
330
DE84
100
AcDbEntity
  8
0
100
AcDbLine
 10
9.749999999999971
 20
69.07417672787755
 30
0.0
 11
9.749999999999971
 21
63.92582327212244
 31
0.0
  0
ARC
  5
14648
330
DE84
100
AcDbEntity
  8
0
100
AcDbCircle
 10
21.6
 20
62.25
 30
0.0
 40
1.899999
100
AcDbArc
 50
231.930059336177
 51
32.65207881483665
  0
ARC
  5
14649
330
DE84
100
AcDbEntity
  8
0
100
AcDbCircle
 10
18.49999999999997
 20
59.75
 30
0.0
 40
6.4
100
AcDbArc
 50
325.4753174849934
 51
34.52468615672805
  0
LINE
  5
1464A
330
DE84
100
AcDbEntity
  8
0
100
AcDbLine
 10
29.99999999999997
 20
62.65000000000009
 30
0.0
 11
29.99999999999997
 21
56.84999999999991
 31
0.0
  0
LINE
  5
1464B
330
DE84
100
AcDbEntity
  8
0
100
AcDbLine
 10
28.1
 20
63.25
 30
0.0
 11
28.1
 21
56.25
 31
0.0
  0
LINE
  5
1464C
330
DE84
100
AcDbEntity
  8
0
100
AcDbLine
 10
51.90000000000001
 20
63.25
 30
0.0
 11
51.90000000000001
 21
56.25
 31
0.0
  0
LINE
  5
1464D
330
DE84
100
AcDbEntity
  8
0
100
AcDbLine
 10
49.99999999999997
 20
62.65000000000009
 30
0.0
 11
49.99999999999997
 21
56.84999999999991
 31
0.0
  0
ARC
  5
1464E
330
DE84
100
AcDbEntity
  8
0
100
AcDbCircle
 10
39.99999999999997
 20
59.75
 30
0.0
 40
5.9
100
AcDbArc
 50
334.0314409251152
 51
25.96855907488477
  0
LINE
  5
1464F
330
DE84
100
AcDbEntity
  8
0
100
AcDbLine
 10
49.99999999999997
 20
62.5
 30
0.0
 11
49.99999999999997
 21
57.0
 31
0.0
  0
ARC
  5
14650
330
DE84
100
AcDbEntity
  8
0
100
AcDbCircle
 10
59.77294993917704
 20
59.75
 30
0.0
 40
11.11840592854991
100
AcDbArc
 50
165.6799783227047
 51
176.9879063773977
  0
ARC
  5
14651
330
DE84
100
AcDbEntity
  8
0
100
AcDbCircle
 10
39.99999999999997
 20
59.75
 30
0.0
 40
6.75
100
AcDbArc
 50
330.17362750394
 51
29.82637249605999
  0
ARC
  5
14652
330
DE84
100
AcDbEntity
  8
0
100
AcDbCircle
 10
39.99999999999997
 20
59.75
 30
0.0
 40
5.9
100
AcDbArc
 50
154.0314409251152
 51
205.9685590748848
  0
ARC
  5
14653
330
DE84
100
AcDbEntity
  8
0
100
AcDbCircle
 10
20.22705006082296
 20
59.75
 30
0.0
 40
11.11840592854991
100
AcDbArc
 50
3.012093622602308
 51
14.32002167729528
  0
LINE
  5
14654
330
DE84
100
AcDbEntity
  8
0
100
AcDbLine
 10
29.99999999999997
 20
62.5
 30
0.0
 11
29.99999999999997
 21
57.0
 31
0.0
  0
ARC
  5
14655
330
DE84
100
AcDbEntity
  8
0
100
AcDbCircle
 10
39.99999999999997
 20
59.75
 30
0.0
 40
6.75
100
AcDbArc
 50
150.17362750394
 51
209.82637249606
  0
CIRCLE
  5
14656
330
DE84
100
AcDbEntity
  8
0
100
AcDbCircle
 10
39.99999999999997
 20
59.75
 30
0.0
 40
4.75
  0
ARC
  5
14657
330
DE84
100
AcDbEntity
  8
0
100
AcDbCircle
 10
36.97864269921317
 20
53.54666218387365
 30
0.0
 40
1.0
100
AcDbArc
 50
64.03144092511519
 51
134.9999999999999
  0
ARC
  5
14658
330
DE84
100
AcDbEntity
  8
0
100
AcDbCircle
 10
39.99999999999997
 20
59.75
 30
0.0
 40
6.75
100
AcDbArc
 50
240.1736275039399
 51
299.82637249606
  0
LINE
  5
14659
330
DE84
100
AcDbEntity
  8
0
100
AcDbLine
 10
30.99999999999997
 20
51.0
 30
0.0
 11
48.99999999999997
 21
51.0
 31
0.0
  0
ARC
  5
1465B
330
DE84
100
AcDbEntity
  8
0
100
AcDbCircle
 10
20.14322000000001
 20
57.84897999999998
 30
0.0
 40
1.899999
100
AcDbArc
 50
299.9003000000168
 51
35.00002999997132
  0
CIRCLE
  5
1465C
330
DE84
100
AcDbEntity
  8
0
100
AcDbCircle
 10
23.27297577299814
 20
54.977034226981
 30
0.0
 40
0.525
  0
CIRCLE
  5
1465D
330
DE84
100
AcDbEntity
  8
0
100
AcDbCircle
 10
23.27296999999996
 20
54.97703000000001
 30
0.0
 40
0.9
  0
CIRCLE
  5
1465E
330
DE84
100
AcDbEntity
  8
0
100
AcDbCircle
 10
23.27296999999996
 20
54.97703000000001
 30
0.0
 40
1.25
  0
LINE
  5
14660
330
DE84
100
AcDbEntity
  8
0
100
AcDbLine
 10
28.59999999999999
 20
56.84999999999991
 30
0.0
 11
29.99999999999997
 21
56.84999999999991
 31
0.0
  0
ARC
  5
14661
330
DE84
100
AcDbEntity
  8
0
100
AcDbCircle
 10
28.59999999999999
 20
56.3499999999999
 30
0.0
 40
0.5
100
AcDbArc
 50
90.0
 51
180.0
  0
ARC
  5
14662
330
DE84
100
AcDbEntity
  8
0
100
AcDbCircle
 10
25.1
 20
56.25
 30
0.0
 40
3.0
100
AcDbArc
 50
270.0
 51
0.0
  0
LINE
  5
14663
330
DE84
100
AcDbEntity
  8
0
100
AcDbLine
 10
30.51359700426767
 20
59.95000000000004
 30
0.0
 11
33.25296361355592
 21
59.95000000000004
 31
0.0
  0
LINE
  5
14664
330
DE84
100
AcDbEntity
  8
0
100
AcDbLine
 10
30.51359700426767
 20
59.54999999999995
 30
0.0
 11
33.25296361355592
 21
59.54999999999995
 31
0.0
  0
LINE
  5
14665
330
DE84
100
AcDbEntity
  8
0
100
AcDbLine
 10
31.62968107077612
 20
60.04999999999995
 30
0.0
 11
33.2566699621033
 21
60.04999999999995
 31
0.0
  0
LINE
  5
14666
330
DE84
100
AcDbEntity
  8
0
100
AcDbLine
 10
31.62968107077612
 20
59.45000000000004
 30
0.0
 11
33.2566699621033
 21
59.45000000000004
 31
0.0
  0
ARC
  5
14667
330
DE84
100
AcDbEntity
  8
0
100
AcDbCircle
 10
20.22705006082296
 20
59.75
 30
0.0
 40
11.11840592854991
100
AcDbArc
 50
345.6799783227047
 51
356.9879063773977
  0
ARC
  5
14668
330
DE84
100
AcDbEntity
  8
0
100
AcDbCircle
 10
31.62968107077612
 20
60.34999999999991
 30
0.0
 40
0.3
100
AcDbArc
 50
183.0120936226023
 51
270.0
  0
ARC
  5
14669
330
DE84
100
AcDbEntity
  8
0
100
AcDbCircle
 10
31.62968107077612
 20
59.15000000000009
 30
0.0
 40
0.3
100
AcDbArc
 50
90.0
 51
176.9879063773977
  0
LINE
  5
1466A
330
DE84
100
AcDbEntity
  8
0
100
AcDbLine
 10
29.99999999999997
 20
57.0
 30
0.0
 11
30.70000000000002
 21
57.0
 31
0.0
  0
ARC
  5
1466B
330
DE84
100
AcDbEntity
  8
0
100
AcDbCircle
 10
30.51359700426767
 20
59.75
 30
0.0
 40
0.2
100
AcDbArc
 50
90.0
 51
270.0
  0
CIRCLE
  5
1466C
330
DE84
100
AcDbEntity
  8
0
100
AcDbCircle
 10
34.87347583639749
 20
54.62347583639758
 30
0.0
 40
0.9
  0
ARC
  5
1466D
330
DE84
100
AcDbEntity
  8
0
100
AcDbCircle
 10
33.53685224913178
 20
56.04456869575938
 30
0.0
 40
0.7000000000000001
100
AcDbArc
 50
314.9999999999999
 51
29.82637249605999
  0
LINE
  5
1466E
330
DE84
100
AcDbEntity
  8
0
100
AcDbLine
 10
33.98959235991433
 20
55.50735931288068
 30
0.0
 11
34.50376896506023
 21
56.02153591802653
 31
0.0
  0
CIRCLE
  5
1466F
330
DE84
100
AcDbEntity
  8
0
100
AcDbCircle
 10
34.87347583639749
 20
54.62347583639758
 30
0.0
 40
0.525
  0
ARC
  5
14672
330
DE84
100
AcDbEntity
  8
0
100
AcDbCircle
 10
36.29456869575935
 20
53.28685224913169
 30
0.0
 40
0.7000000000000001
100
AcDbArc
 50
60.17362750393996
 51
134.9999999999999
  0
LINE
  5
14673
330
DE84
100
AcDbEntity
  8
0
100
AcDbLine
 10
35.75735931288071
 20
53.73959235991424
 30
0.0
 11
36.27153591802662
 21
54.25376896506032
 31
0.0
  0
LINE
  5
14674
330
DE84
100
AcDbEntity
  8
0
100
AcDbLine
 10
30.99999999999997
 20
56.70000000000005
 30
0.0
 11
30.99999999999997
 21
51.0
 31
0.0
  0
ARC
  5
14675
330
DE84
100
AcDbEntity
  8
0
100
AcDbCircle
 10
34.87347583639749
 20
54.62347583639758
 30
0.0
 40
1.25
100
AcDbArc
 50
134.9999999999999
 51
314.9999999999999
  0
ARC
  5
14676
330
DE84
100
AcDbEntity
  8
0
100
AcDbCircle
 10
30.70000000000002
 20
56.70000000000005
 30
0.0
 40
0.3
100
AcDbArc
 50
0.0
 51
90.0
  0
ARC
  5
14677
330
DE84
100
AcDbEntity
  8
0
100
AcDbCircle
 10
33.79666218387374
 20
56.72864269921319
 30
0.0
 40
1.0
100
AcDbArc
 50
314.9999999999999
 51
25.96855907488477
  0
LINE
  5
14678
330
DE84
100
AcDbEntity
  8
0
100
AcDbLine
 10
51.4
 20
56.84999999999991
 30
0.0
 11
49.99999999999997
 21
56.84999999999991
 31
0.0
  0
ARC
  5
14679
330
DE84
100
AcDbEntity
  8
0
100
AcDbCircle
 10
51.4
 20
56.3499999999999
 30
0.0
 40
0.5
100
AcDbArc
 50
0.0
 51
90.0
  0
LINE
  5
1467A
330
DE84
100
AcDbEntity
  8
0
100
AcDbLine
 10
49.48640299573233
 20
59.54999999999995
 30
0.0
 11
46.74703638644402
 21
59.54999999999995
 31
0.0
  0
LINE
  5
1467B
330
DE84
100
AcDbEntity
  8
0
100
AcDbLine
 10
49.48640299573233
 20
59.95000000000004
 30
0.0
 11
46.74703638644402
 21
59.95000000000004
 31
0.0
  0
LINE
  5
1467C
330
DE84
100
AcDbEntity
  8
0
100
AcDbLine
 10
48.37031892922388
 20
59.45000000000004
 30
0.0
 11
46.74333003789669
 21
59.45000000000004
 31
0.0
  0
LINE
  5
1467D
330
DE84
100
AcDbEntity
  8
0
100
AcDbLine
 10
48.37031892922388
 20
60.04999999999995
 30
0.0
 11
46.74333003789669
 21
60.04999999999995
 31
0.0
  0
ARC
  5
1467E
330
DE84
100
AcDbEntity
  8
0
100
AcDbCircle
 10
48.37031892922388
 20
60.34999999999991
 30
0.0
 40
0.3
100
AcDbArc
 50
270.0
 51
356.9879063773977
  0
ARC
  5
1467F
330
DE84
100
AcDbEntity
  8
0
100
AcDbCircle
 10
48.37031892922388
 20
59.15000000000009
 30
0.0
 40
0.3
100
AcDbArc
 50
3.012093622602308
 51
90.0
  0
ARC
  5
14680
330
DE84
100
AcDbEntity
  8
0
100
AcDbCircle
 10
59.77294993917704
 20
59.75
 30
0.0
 40
11.11840592854991
100
AcDbArc
 50
183.0120936226023
 51
194.3200216772952
  0
ARC
  5
14681
330
DE84
100
AcDbEntity
  8
0
100
AcDbCircle
 10
49.48640299573233
 20
59.75
 30
0.0
 40
0.2
100
AcDbArc
 50
270.0
 51
90.0
  0
LINE
  5
14682
330
DE84
100
AcDbEntity
  8
0
100
AcDbLine
 10
49.99999999999997
 20
57.0
 30
0.0
 11
49.29999999999998
 21
57.0
 31
0.0
  0
ARC
  5
14683
330
DE84
100
AcDbEntity
  8
0
100
AcDbCircle
 10
46.46314775086821
 20
56.04456869575938
 30
0.0
 40
0.7000000000000001
100
AcDbArc
 50
150.17362750394
 51
225.0
  0
LINE
  5
14684
330
DE84
100
AcDbEntity
  8
0
100
AcDbLine
 10
46.01040764008567
 20
55.50735931288068
 30
0.0
 11
45.49623103493977
 21
56.02153591802653
 31
0.0
  0
CIRCLE
  5
14685
330
DE84
100
AcDbEntity
  8
0
100
AcDbCircle
 10
45.12652416360251
 20
54.62347583639758
 30
0.0
 40
0.525
  0
LINE
  5
14686
330
DE84
100
AcDbEntity
  8
0
100
AcDbLine
 10
48.99999999999997
 20
56.70000000000005
 30
0.0
 11
48.99999999999997
 21
51.0
 31
0.0
  0
ARC
  5
14687
330
DE84
100
AcDbEntity
  8
0
100
AcDbCircle
 10
46.20333781612626
 20
56.72864269921319
 30
0.0
 40
1.0
100
AcDbArc
 50
154.0314409251152
 51
225.0
  0
ARC
  5
14688
330
DE84
100
AcDbEntity
  8
0
100
AcDbCircle
 10
49.29999999999998
 20
56.70000000000005
 30
0.0
 40
0.3
100
AcDbArc
 50
90.0
 51
180.0
  0
ARC
  5
14689
330
DE84
100
AcDbEntity
  8
0
100
AcDbCircle
 10
43.02135730078677
 20
53.54666218387365
 30
0.0
 40
1.0
100
AcDbArc
 50
45.00000000000006
 51
115.9685590748848
  0
ARC
  5
1468A
330
DE84
100
AcDbEntity
  8
0
100
AcDbCircle
 10
43.70543130424064
 20
53.28685224913169
 30
0.0
 40
0.7000000000000001
100
AcDbArc
 50
45.00000000000006
 51
119.82637249606
  0
LINE
  5
1468B
330
DE84
100
AcDbEntity
  8
0
100
AcDbLine
 10
44.24264068711929
 20
53.73959235991424
 30
0.0
 11
43.72846408197327
 21
54.25376896506032
 31
0.0
  0
ARC
  5
1468C
330
DE84
100
AcDbEntity
  8
0
100
AcDbCircle
 10
39.99999999999997
 20
59.75
 30
0.0
 40
5.9
100
AcDbArc
 50
244.0314409251152
 51
295.9685590748848
  0
CIRCLE
  5
1468F
330
DE84
100
AcDbEntity
  8
0
100
AcDbCircle
 10
45.12652416360251
 20
54.62347583639758
 30
0.0
 40
0.9
  0
ARC
  5
14690
330
DE84
100
AcDbEntity
  8
0
100
AcDbCircle
 10
45.12652416360251
 20
54.62347583639758
 30
0.0
 40
1.25
100
AcDbArc
 50
225.0
 51
45.00000000000006
  0
ARC
  5
14691
330
DE84
100
AcDbEntity
  8
0
100
AcDbCircle
 10
36.97864269921317
 20
67.04666218387365
 30
0.0
 40
1.0
100
AcDbArc
 50
64.03144092511519
 51
134.9999999999999
  0
ARC
  5
14692
330
DE84
100
AcDbEntity
  8
0
100
AcDbCircle
 10
39.99999999999997
 20
73.25
 30
0.0
 40
6.75
100
AcDbArc
 50
240.1736275039399
 51
299.82637249606
  0
ARC
  5
14693
330
DE84
100
AcDbEntity
  8
0
100
AcDbCircle
 10
36.97864269921317
 20
65.95333781612635
 30
0.0
 40
1.0
100
AcDbArc
 50
225.0
 51
295.9685590748848
  0
ARC
  5
14694
330
DE84
100
AcDbEntity
  8
0
100
AcDbCircle
 10
39.99999999999997
 20
59.75
 30
0.0
 40
6.75
100
AcDbArc
 50
60.17362750393996
 51
119.82637249606
  0
CIRCLE
  5
14695
330
DE84
100
AcDbEntity
  8
0
100
AcDbCircle
 10
23.27297327300605
 20
64.52297327300607
 30
0.0
 40
0.525
  0
CIRCLE
  5
14696
330
DE84
100
AcDbEntity
  8
0
100
AcDbCircle
 10
23.27297077300918
 20
64.52297077300909
 30
0.0
 40
0.9
  0
CIRCLE
  5
14697
330
DE84
100
AcDbEntity
  8
0
100
AcDbCircle
 10
23.27297077300918
 20
64.52297077300909
 30
0.0
 40
1.25
  0
ARC
  5
1469A
330
DE84
100
AcDbEntity
  8
0
100
AcDbCircle
 10
20.61697000000001
 20
71.98954000000004
 30
0.0
 40
1.9
100
AcDbArc
 50
301.5601999999893
 51
34.99999999997886
  0
CIRCLE
  5
1469B
330
DE84
100
AcDbEntity
  8
0
100
AcDbCircle
 10
23.27297327300127
 20
68.47703172698425
 30
0.0
 40
0.525
  0
CIRCLE
  5
1469C
330
DE84
100
AcDbEntity
  8
0
100
AcDbCircle
 10
23.27296999999996
 20
68.47703000000001
 30
0.0
 40
0.9
  0
CIRCLE
  5
1469F
330
DE84
100
AcDbEntity
  8
0
100
AcDbCircle
 10
23.27296999999996
 20
68.47703000000001
 30
0.0
 40
1.25
  0
ARC
  5
146A0
330
DE84
100
AcDbEntity
  8
0
100
AcDbCircle
 10
28.59999999999999
 20
63.15000000000009
 30
0.0
 40
0.5
100
AcDbArc
 50
180.0
 51
270.0
  0
LINE
  5
146A1
330
DE84
100
AcDbEntity
  8
0
100
AcDbLine
 10
28.59999999999999
 20
62.65000000000009
 30
0.0
 11
29.99999999999997
 21
62.65000000000009
 31
0.0
  0
ARC
  5
146A2
330
DE84
100
AcDbEntity
  8
0
100
AcDbCircle
 10
25.1
 20
63.25
 30
0.0
 40
3.0
100
AcDbArc
 50
0.0
 51
90.0
  0
LINE
  5
146A3
330
DE84
100
AcDbEntity
  8
0
100
AcDbLine
 10
28.59999999999999
 20
70.34999999999991
 30
0.0
 11
29.99999999999997
 21
70.34999999999991
 31
0.0
  0
ARC
  5
146A4
330
DE84
100
AcDbEntity
  8
0
100
AcDbCircle
 10
28.59999999999999
 20
69.84999999999991
 30
0.0
 40
0.5
100
AcDbArc
 50
90.0
 51
180.0
  0
ARC
  5
146A5
330
DE84
100
AcDbEntity
  8
0
100
AcDbCircle
 10
25.1
 20
69.75
 30
0.0
 40
3.0
100
AcDbArc
 50
270.0
 51
0.0
  0
CIRCLE
  5
146A6
330
DE84
100
AcDbEntity
  8
0
100
AcDbCircle
 10
34.87347583639749
 20
68.12347583639757
 30
0.0
 40
0.9
  0
ARC
  5
146A7
330
DE84
100
AcDbEntity
  8
0
100
AcDbCircle
 10
33.53685224913178
 20
69.54456869575938
 30
0.0
 40
0.7000000000000001
100
AcDbArc
 50
314.9999999999999
 51
29.82637249605999
  0
LINE
  5
146A8
330
DE84
100
AcDbEntity
  8
0
100
AcDbLine
 10
33.98959235991433
 20
69.00735931288068
 30
0.0
 11
34.50376896506023
 21
69.52153591802653
 31
0.0
  0
CIRCLE
  5
146A9
330
DE84
100
AcDbEntity
  8
0
100
AcDbCircle
 10
34.87347583639749
 20
68.12347583639757
 30
0.0
 40
0.525
  0
ARC
  5
146AC
330
DE84
100
AcDbEntity
  8
0
100
AcDbCircle
 10
36.29456869575935
 20
66.7868522491317
 30
0.0
 40
0.7000000000000001
100
AcDbArc
 50
60.17362750393996
 51
134.9999999999999
  0
LINE
  5
146AD
330
DE84
100
AcDbEntity
  8
0
100
AcDbLine
 10
35.75735931288071
 20
67.23959235991424
 30
0.0
 11
36.27153591802662
 21
67.75376896506031
 31
0.0
  0
ARC
  5
146AE
330
DE84
100
AcDbEntity
  8
0
100
AcDbCircle
 10
33.79666218387374
 20
70.2286426992132
 30
0.0
 40
1.0
100
AcDbArc
 50
314.9999999999999
 51
25.96855907488477
  0
LINE
  5
146AF
330
DE84
100
AcDbEntity
  8
0
100
AcDbLine
 10
31.62968107077612
 20
72.95000000000005
 30
0.0
 11
33.2566699621033
 21
72.95000000000005
 31
0.0
  0
LINE
  5
146B0
330
DE84
100
AcDbEntity
  8
0
100
AcDbLine
 10
31.62968107077612
 20
73.54999999999995
 30
0.0
 11
33.2566699621033
 21
73.54999999999995
 31
0.0
  0
LINE
  5
146B1
330
DE84
100
AcDbEntity
  8
0
100
AcDbLine
 10
30.51359700426767
 20
73.45000000000005
 30
0.0
 11
33.25296361355592
 21
73.45000000000005
 31
0.0
  0
LINE
  5
146B2
330
DE84
100
AcDbEntity
  8
0
100
AcDbLine
 10
30.51359700426767
 20
73.04999999999996
 30
0.0
 11
33.25296361355592
 21
73.04999999999996
 31
0.0
  0
ARC
  5
146B3
330
DE84
100
AcDbEntity
  8
0
100
AcDbCircle
 10
20.22705006082285
 20
73.25
 30
0.0
 40
11.11840592854997
100
AcDbArc
 50
345.6799783227047
 51
356.9879063773977
  0
ARC
  5
146B4
330
DE84
100
AcDbEntity
  8
0
100
AcDbCircle
 10
30.70000000000002
 20
70.20000000000004
 30
0.0
 40
0.3
100
AcDbArc
 50
0.0
 51
90.0
  0
ARC
  5
146B5
330
DE84
100
AcDbEntity
  8
0
100
AcDbCircle
 10
31.62968107077612
 20
72.65000000000009
 30
0.0
 40
0.3
100
AcDbArc
 50
90.0
 51
176.9879063773977
  0
LINE
  5
146B6
330
DE84
100
AcDbEntity
  8
0
100
AcDbLine
 10
29.99999999999997
 20
70.5
 30
0.0
 11
30.70000000000002
 21
70.5
 31
0.0
  0
ARC
  5
146B7
330
DE84
100
AcDbEntity
  8
0
100
AcDbCircle
 10
30.51359700426767
 20
73.25
 30
0.0
 40
0.2
100
AcDbArc
 50
90.0
 51
270.0
  0
ARC
  5
146B8
330
DE84
100
AcDbEntity
  8
0
100
AcDbCircle
 10
34.87347583639749
 20
68.12347583639757
 30
0.0
 40
1.25
100
AcDbArc
 50
134.9999999999999
 51
314.9999999999999
  0
ARC
  5
146B9
330
DE84
100
AcDbEntity
  8
0
100
AcDbCircle
 10
33.79666218387374
 20
62.7713573007868
 30
0.0
 40
1.0
100
AcDbArc
 50
334.0314409251152
 51
45.00000000000006
  0
LINE
  5
146BA
330
DE84
100
AcDbEntity
  8
0
100
AcDbLine
 10
33.98959235991433
 20
63.99264068711932
 30
0.0
 11
34.50376896506023
 21
63.47846408197347
 31
0.0
  0
ARC
  5
146BB
330
DE84
100
AcDbEntity
  8
0
100
AcDbCircle
 10
33.53685224913167
 20
63.45543130424061
 30
0.0
 40
0.7000000000000001
100
AcDbArc
 50
330.17362750394
 51
45.00000000000006
  0
CIRCLE
  5
146BC
330
DE84
100
AcDbEntity
  8
0
100
AcDbCircle
 10
34.87347583639749
 20
64.87652416360242
 30
0.0
 40
0.525
  0
ARC
  5
146BD
330
DE84
100
AcDbEntity
  8
0
100
AcDbCircle
 10
30.70000000000002
 20
62.79999999999995
 30
0.0
 40
0.3
100
AcDbArc
 50
270.0
 51
0.0
  0
LINE
  5
146BE
330
DE84
100
AcDbEntity
  8
0
100
AcDbLine
 10
29.99999999999997
 20
62.5
 30
0.0
 11
30.70000000000002
 21
62.5
 31
0.0
  0
LINE
  5
146BF
330
DE84
100
AcDbEntity
  8
0
100
AcDbLine
 10
30.99999999999997
 20
70.20000000000004
 30
0.0
 11
30.99999999999997
 21
62.79999999999995
 31
0.0
  0
CIRCLE
  5
146C2
330
DE84
100
AcDbEntity
  8
0
100
AcDbCircle
 10
34.87347583639749
 20
64.87652416360242
 30
0.0
 40
0.9
  0
ARC
  5
146C3
330
DE84
100
AcDbEntity
  8
0
100
AcDbCircle
 10
34.87347583639749
 20
64.87652416360242
 30
0.0
 40
1.25
100
AcDbArc
 50
45.00000000000006
 51
225.0
  0
ARC
  5
146C4
330
DE84
100
AcDbEntity
  8
0
100
AcDbCircle
 10
36.29456869575935
 20
66.2131477508683
 30
0.0
 40
0.7000000000000001
100
AcDbArc
 50
225.0
 51
299.82637249606
  0
LINE
  5
146C5
330
DE84
100
AcDbEntity
  8
0
100
AcDbLine
 10
35.75735931288071
 20
65.76040764008576
 30
0.0
 11
36.27153591802662
 21
65.24623103493969
 31
0.0
  0
LINE
  5
146C6
330
DE84
100
AcDbEntity
  8
0
100
AcDbLine
 10
51.4
 20
70.34999999999991
 30
0.0
 11
49.99999999999997
 21
70.34999999999991
 31
0.0
  0
ARC
  5
146C7
330
DE84
100
AcDbEntity
  8
0
100
AcDbCircle
 10
51.4
 20
69.84999999999991
 30
0.0
 40
0.5
100
AcDbArc
 50
0.0
 51
90.0
  0
ARC
  5
146C8
330
DE84
100
AcDbEntity
  8
0
100
AcDbCircle
 10
51.4
 20
63.15000000000009
 30
0.0
 40
0.5
100
AcDbArc
 50
270.0
 51
0.0
  0
LINE
  5
146C9
330
DE84
100
AcDbEntity
  8
0
100
AcDbLine
 10
51.4
 20
62.65000000000009
 30
0.0
 11
49.99999999999997
 21
62.65000000000009
 31
0.0
  0
LINE
  5
146CA
330
DE84
100
AcDbEntity
  8
0
100
AcDbLine
 10
49.48640299573233
 20
73.04999999999996
 30
0.0
 11
46.74703638644402
 21
73.04999999999996
 31
0.0
  0
LINE
  5
146CB
330
DE84
100
AcDbEntity
  8
0
100
AcDbLine
 10
49.48640299573233
 20
73.45000000000005
 30
0.0
 11
46.74703638644402
 21
73.45000000000005
 31
0.0
  0
LINE
  5
146CC
330
DE84
100
AcDbEntity
  8
0
100
AcDbLine
 10
48.37031892922388
 20
73.54999999999995
 30
0.0
 11
46.74333003789669
 21
73.54999999999995
 31
0.0
  0
LINE
  5
146CD
330
DE84
100
AcDbEntity
  8
0
100
AcDbLine
 10
48.37031892922388
 20
72.95000000000005
 30
0.0
 11
46.74333003789669
 21
72.95000000000005
 31
0.0
  0
ARC
  5
146CE
330
DE84
100
AcDbEntity
  8
0
100
AcDbCircle
 10
49.29999999999998
 20
70.20000000000004
 30
0.0
 40
0.3
100
AcDbArc
 50
90.0
 51
180.0
  0
ARC
  5
146CF
330
DE84
100
AcDbEntity
  8
0
100
AcDbCircle
 10
48.37031892922388
 20
72.65000000000009
 30
0.0
 40
0.3
100
AcDbArc
 50
3.012093622602308
 51
90.0
  0
ARC
  5
146D0
330
DE84
100
AcDbEntity
  8
0
100
AcDbCircle
 10
59.77294993917709
 20
73.25
 30
0.0
 40
11.11840592854997
100
AcDbArc
 50
183.0120936226023
 51
194.3200216772952
  0
ARC
  5
146D1
330
DE84
100
AcDbEntity
  8
0
100
AcDbCircle
 10
49.48640299573233
 20
73.25
 30
0.0
 40
0.2
100
AcDbArc
 50
270.0
 51
90.0
  0
LINE
  5
146D2
330
DE84
100
AcDbEntity
  8
0
100
AcDbLine
 10
49.99999999999997
 20
70.5
 30
0.0
 11
49.29999999999998
 21
70.5
 31
0.0
  0
ARC
  5
146D3
330
DE84
100
AcDbEntity
  8
0
100
AcDbCircle
 10
46.46314775086821
 20
69.54456869575938
 30
0.0
 40
0.7000000000000001
100
AcDbArc
 50
150.17362750394
 51
225.0
  0
LINE
  5
146D4
330
DE84
100
AcDbEntity
  8
0
100
AcDbLine
 10
46.01040764008567
 20
69.00735931288068
 30
0.0
 11
45.49623103493977
 21
69.52153591802653
 31
0.0
  0
CIRCLE
  5
146D5
330
DE84
100
AcDbEntity
  8
0
100
AcDbCircle
 10
45.12652416360251
 20
68.12347583639757
 30
0.0
 40
0.525
  0
ARC
  5
146D6
330
DE84
100
AcDbEntity
  8
0
100
AcDbCircle
 10
46.20333781612626
 20
70.2286426992132
 30
0.0
 40
1.0
100
AcDbArc
 50
154.0314409251152
 51
225.0
  0
ARC
  5
146D7
330
DE84
100
AcDbEntity
  8
0
100
AcDbCircle
 10
43.02135730078677
 20
67.04666218387365
 30
0.0
 40
1.0
100
AcDbArc
 50
45.00000000000006
 51
115.9685590748848
  0
ARC
  5
146D8
330
DE84
100
AcDbEntity
  8
0
100
AcDbCircle
 10
43.70543130424064
 20
66.7868522491317
 30
0.0
 40
0.7000000000000001
100
AcDbArc
 50
45.00000000000006
 51
119.82637249606
  0
LINE
  5
146D9
330
DE84
100
AcDbEntity
  8
0
100
AcDbLine
 10
44.24264068711929
 20
67.23959235991424
 30
0.0
 11
43.72846408197327
 21
67.75376896506031
 31
0.0
  0
ARC
  5
146DA
330
DE84
100
AcDbEntity
  8
0
100
AcDbCircle
 10
39.99999999999997
 20
73.25
 30
0.0
 40
5.9
100
AcDbArc
 50
244.0314409251152
 51
295.9685590748848
  0
CIRCLE
  5
146DD
330
DE84
100
AcDbEntity
  8
0
100
AcDbCircle
 10
45.12652416360251
 20
68.12347583639757
 30
0.0
 40
0.9
  0
ARC
  5
146DE
330
DE84
100
AcDbEntity
  8
0
100
AcDbCircle
 10
45.12652416360251
 20
68.12347583639757
 30
0.0
 40
1.25
100
AcDbArc
 50
225.0
 51
45.00000000000006
  0
ARC
  5
146DF
330
DE84
100
AcDbEntity
  8
0
100
AcDbCircle
 10
46.46314775086821
 20
63.45543130424061
 30
0.0
 40
0.7000000000000001
100
AcDbArc
 50
134.9999999999999
 51
209.82637249606
  0
LINE
  5
146E0
330
DE84
100
AcDbEntity
  8
0
100
AcDbLine
 10
46.01040764008567
 20
63.99264068711932
 30
0.0
 11
45.49623103493977
 21
63.47846408197347
 31
0.0
  0
ARC
  5
146E1
330
DE84
100
AcDbEntity
  8
0
100
AcDbCircle
 10
46.20333781612626
 20
62.7713573007868
 30
0.0
 40
1.0
100
AcDbArc
 50
134.9999999999999
 51
205.9685590748848
  0
CIRCLE
  5
146E2
330
DE84
100
AcDbEntity
  8
0
100
AcDbCircle
 10
45.12652416360251
 20
64.87652416360242
 30
0.0
 40
0.525
  0
ARC
  5
146E3
330
DE84
100
AcDbEntity
  8
0
100
AcDbCircle
 10
49.29999999999998
 20
62.79999999999995
 30
0.0
 40
0.3
100
AcDbArc
 50
180.0
 51
270.0
  0
LINE
  5
146E4
330
DE84
100
AcDbEntity
  8
0
100
AcDbLine
 10
49.99999999999997
 20
62.5
 30
0.0
 11
49.29999999999998
 21
62.5
 31
0.0
  0
ARC
  5
146E5
330
DE84
100
AcDbEntity
  8
0
100
AcDbCircle
 10
43.02135730078677
 20
65.95333781612635
 30
0.0
 40
1.0
100
AcDbArc
 50
244.0314409251152
 51
314.9999999999999
  0
ARC
  5
146E6
330
DE84
100
AcDbEntity
  8
0
100
AcDbCircle
 10
39.99999999999997
 20
59.75
 30
0.0
 40
5.9
100
AcDbArc
 50
64.03144092511519
 51
115.9685590748848
  0
CIRCLE
  5
146E9
330
DE84
100
AcDbEntity
  8
0
100
AcDbCircle
 10
45.12652416360251
 20
64.87652416360242
 30
0.0
 40
0.9
  0
ARC
  5
146EA
330
DE84
100
AcDbEntity
  8
0
100
AcDbCircle
 10
45.12652416360251
 20
64.87652416360242
 30
0.0
 40
1.25
100
AcDbArc
 50
314.9999999999999
 51
134.9999999999999
  0
ARC
  5
146EB
330
DE84
100
AcDbEntity
  8
0
100
AcDbCircle
 10
43.70543130424064
 20
66.2131477508683
 30
0.0
 40
0.7000000000000001
100
AcDbArc
 50
240.1736275039399
 51
314.9999999999999
  0
LINE
  5
146EC
330
DE84
100
AcDbEntity
  8
0
100
AcDbLine
 10
44.24264068711929
 20
65.76040764008576
 30
0.0
 11
43.72846408197339
 21
65.24623103493969
 31
0.0
  0
LINE
  5
146ED
330
DE84
100
AcDbEntity
  8
0
100
AcDbLine
 10
48.99999999999997
 20
70.20000000000004
 30
0.0
 11
48.99999999999997
 21
62.79999999999995
 31
0.0
  0
LINE
  5
146EE
330
DE84
100
AcDbEntity
  8
0
100
AcDbLine
 10
70.24999999999997
 20
55.57417672787733
 30
0.0
 11
70.24999999999997
 21
37.40000000000009
 31
0.0
  0
CIRCLE
  5
146F0
330
DE84
100
AcDbEntity
  8
0
100
AcDbCircle
 10
68.15000000000001
 20
35.5
 30
0.0
 40
0.65
  0
CIRCLE
  5
146F2
330
DE84
100
AcDbEntity
  8
0
100
AcDbCircle
 10
72.15
 20
35.5
 30
0.0
 40
0.65
  0
LINE
  5
146F4
330
DE84
100
AcDbEntity
  8
0
100
AcDbLine
 10
73.95000000000002
 20
33.59999999999991
 30
0.0
 11
73.95000000000002
 21
37.40000000000009
 31
0.0
  0
CIRCLE
  5
146F6
330
DE84
100
AcDbEntity
  8
0
100
AcDbCircle
 10
64.59999999999999
 20
62.25
 30
0.0
 40
1.4
  0
ARC
  5
146F7
330
DE84
100
AcDbEntity
  8
0
100
AcDbCircle
 10
64.59999999999999
 20
62.25
 30
0.0
 40
1.899999
100
AcDbArc
 50
231.9300593361818
 51
32.65207881483313
  0
LWPOLYLINE
  5
146F8
330
DE84
100
AcDbEntity
  8
0
100
AcDbPolyline
 90
        8
 70
     1
 43
0.0
 10
58.24999999999997
 20
61.5
 10
62.85
 20
61.5
 42
0.4142135623730951
 10
63.04999999999998
 20
61.70000000000005
 10
63.04999999999998
 20
63.80000000000018
 42
0.4142135623730895
 10
62.85
 20
64.0
 10
58.25000000000002
 20
64.00000000000023
 42
0.4142135623730951
 10
58.04999999999998
 20
63.80000000000018
 10
58.04999999999998
 20
61.70000000000005
 42
0.4142135623730951
  0
ARC
  5
146F9
330
DE84
100
AcDbEntity
  8
0
100
AcDbCircle
 10
61.49999999999997
 20
59.75
 30
0.0
 40
6.4
100
AcDbArc
 50
325.4753174849934
 51
34.52468615672805
  0
ARC
  5
146FA
330
DE84
100
AcDbEntity
  8
0
100
AcDbCircle
 10
61.49999999999997
 20
59.75
 30
0.0
 40
6.4
100
AcDbArc
 50
145.4753174849934
 51
214.5245989381099
  0
ARC
  5
146FB
330
DE84
100
AcDbEntity
  8
0
100
AcDbCircle
 10
58.99999999999997
 20
59.75
 30
0.0
 40
12.0
100
AcDbArc
 50
336.4435356908919
 51
23.55646430910807
  0
LINE
  5
146FC
330
DE84
100
AcDbEntity
  8
0
100
AcDbLine
 10
69.99999999999997
 20
65.75
 30
0.0
 11
69.99999999999997
 21
53.75
 31
0.0
  0
ARC
  5
146FD
330
DE84
100
AcDbEntity
  8
0
100
AcDbCircle
 10
69.49999999999997
 20
53.75
 30
0.0
 40
0.5
100
AcDbArc
 50
270.0
 51
0.0
  0
ARC
  5
146FE
330
DE84
100
AcDbEntity
  8
0
100
AcDbCircle
 10
61.59360000000001
 20
60.19794000000001
 30
0.0
 40
0.6000000000000001
100
AcDbArc
 50
114.0796000000237
 51
151.4000000000236
  0
ARC
  5
146FF
330
DE84
100
AcDbEntity
  8
0
100
AcDbCircle
 10
61.27854999999996
 20
60.19542999999998
 30
0.0
 40
0.7000000000000001
100
AcDbArc
 50
103.6856000000047
 51
155.0030999999868
  0
ARC
  5
14700
330
DE84
100
AcDbEntity
  8
0
100
AcDbCircle
 10
60.9
 20
61.75
 30
0.0
 40
0.9
100
AcDbArc
 50
196.1275999999859
 51
206.3206000000066
  0
ARC
  5
14701
330
DE84
100
AcDbEntity
  8
0
100
AcDbCircle
 10
60.9
 20
61.75
 30
0.0
 40
1.1
100
AcDbArc
 50
193.1365000000456
 51
195.9265999999735
  0
ARC
  5
14702
330
DE84
100
AcDbEntity
  8
0
100
AcDbCircle
 10
59.26525999999999
 20
61.28350000000001
 30
0.0
 40
0.6000000000000001
100
AcDbArc
 50
338.6063000000295
 51
15.92661000004586
  0
ARC
  5
14703
330
DE84
100
AcDbEntity
  8
0
100
AcDbCircle
 10
59.46588
 20
61.04057000000011
 30
0.0
 40
0.7000000000000001
100
AcDbArc
 50
335.0030999999868
 51
26.32058999995165
  0
ARC
  5
14704
330
DE84
100
AcDbEntity
  8
0
100
AcDbCircle
 10
60.9
 20
61.75
 30
0.0
 40
0.9
100
AcDbArc
 50
283.685499999977
 51
343.8724000000141
  0
ARC
  5
14705
330
DE84
100
AcDbEntity
  8
0
100
AcDbCircle
 10
60.9
 20
61.75
 30
0.0
 40
1.1
100
AcDbArc
 50
294.0795000000139
 51
346.86340000004
  0
ARC
  5
14707
330
DE84
100
AcDbEntity
  8
0
100
AcDbCircle
 10
63.14322000000001
 20
57.84897999999998
 30
0.0
 40
1.899999
100
AcDbArc
 50
299.9003000000111
 51
35.00002999997132
  0
CIRCLE
  5
14708
330
DE84
100
AcDbEntity
  8
0
100
AcDbCircle
 10
66.27297577299813
 20
54.977034226981
 30
0.0
 40
0.525
  0
CIRCLE
  5
14709
330
DE84
100
AcDbEntity
  8
0
100
AcDbCircle
 10
66.27296999999995
 20
54.97703000000001
 30
0.0
 40
0.9
  0
CIRCLE
  5
1470A
330
DE84
100
AcDbEntity
  8
0
100
AcDbCircle
 10
66.27296999999995
 20
54.97703000000001
 30
0.0
 40
1.25
  0
ARC
  5
1470D
330
DE84
100
AcDbEntity
  8
0
100
AcDbCircle
 10
58.53360999999998
 20
56.67454999999995
 30
0.0
 40
0.3999992
100
AcDbArc
 50
158.60640000004
 51
331.4002000000199
  0
ARC
  5
1470E
330
DE84
100
AcDbEntity
  8
0
100
AcDbCircle
 10
58.65677999999999
 20
57.84897999999998
 30
0.0
 40
1.899999
100
AcDbArc
 50
145.0000000000211
 51
240.099599999981
  0
CIRCLE
  5
1470F
330
DE84
100
AcDbEntity
  8
0
100
AcDbCircle
 10
56.72703172698764
 20
54.97703172698766
 30
0.0
 40
0.525
  0
CIRCLE
  5
14710
330
DE84
100
AcDbEntity
  8
0
100
AcDbCircle
 10
56.72702999999998
 20
54.97703999999998
 30
0.0
 40
1.25
  0
CIRCLE
  5
14711
330
DE84
100
AcDbEntity
  8
0
100
AcDbCircle
 10
56.72702999999998
 20
54.97703999999998
 30
0.0
 40
0.9
  0
ARC
  5
14713
330
DE84
100
AcDbEntity
  8
0
100
AcDbCircle
 10
58.53360999999998
 20
56.67454999999995
 30
0.0
 40
0.3
100
AcDbArc
 50
155.0033000000084
 51
335.0033000000084
  0
ARC
  5
14714
330
DE84
100
AcDbEntity
  8
0
100
AcDbCircle
 10
60.9
 20
61.75
 30
0.0
 40
6.4
100
AcDbArc
 50
240.099599999981
 51
299.9003000000111
  0
ARC
  5
14715
330
DE84
100
AcDbEntity
  8
0
100
AcDbCircle
 10
61.49999999999997
 20
59.75
 30
0.0
 40
6.4
100
AcDbArc
 50
235.4752810195497
 51
304.5246825149913
  0
LWPOLYLINE
  5
14716
330
DE84
100
AcDbEntity
  8
0
100
AcDbPolyline
 90
        5
 70
     0
 43
0.0
 10
58.95000000000002
 20
56.60263663590012
 10
58.95000000000002
 20
56.45000000000004
 10
62.85
 20
56.45000000000004
 10
62.85
 20
58.05000000000018
 10
59.73912998593235
 20
58.05000000000018
  0
LINE
  5
14717
330
DE84
100
AcDbEntity
  8
0
100
AcDbLine
 10
62.90148999999999
 20
61.50674000000003
 30
0.0
 11
64.6996
 21
58.93876999999998
 31
0.0
  0
LINE
  5
14718
330
DE84
100
AcDbEntity
  8
0
100
AcDbLine
 10
57.10038999999998
 20
58.93877999999995
 30
0.0
 11
58.89378000000002
 21
61.5
 31
0.0
  0
LINE
  5
14719
330
DE84
100
AcDbEntity
  8
0
100
AcDbLine
 10
58.26170999999996
 20
56.80131000000006
 30
0.0
 11
60.10031000000001
 21
60.74477000000001
 31
0.0
  0
LINE
  5
1471A
330
DE84
100
AcDbEntity
  8
0
100
AcDbLine
 10
59.82392000000001
 20
61.06465000000003
 30
0.0
 11
58.16117
 21
56.82045999999991
 31
0.0
  0
LINE
  5
1471B
330
DE84
100
AcDbEntity
  8
0
100
AcDbLine
 10
61.06681999999998
 20
60.48514999999998
 30
0.0
 11
58.88480999999998
 21
56.48306999999999
 31
0.0
  0
LINE
  5
1471C
330
DE84
100
AcDbEntity
  8
0
100
AcDbLine
 10
58.80551999999998
 20
56.5477699999999
 30
0.0
 11
60.64412000000001
 21
60.49121999999989
 31
0.0
  0
LINE
  5
1471D
330
DE84
100
AcDbEntity
  8
0
100
AcDbLine
 10
69.49999999999997
 20
53.25
 30
0.0
 11
54.90000000000001
 21
53.25
 31
0.0
  0
LINE
  5
1471E
330
DE84
100
AcDbEntity
  8
0
100
AcDbLine
 10
73.34999999999999
 20
61.65000000000009
 30
0.0
 11
70.84862861262852
 21
61.65000000000009
 31
0.0
  0
CIRCLE
  5
14720
330
DE84
100
AcDbEntity
  8
0
100
AcDbCircle
 10
72.15
 20
59.75
 30
0.0
 40
0.525
  0
LINE
  5
14721
330
DE84
100
AcDbEntity
  8
0
100
AcDbLine
 10
73.34999999999999
 20
57.84999999999991
 30
0.0
 11
70.84862861262852
 21
57.84999999999991
 31
0.0
  0
LINE
  5
14722
330
DE84
100
AcDbEntity
  8
0
100
AcDbLine
 10
73.34999999999999
 20
61.65000000000009
 30
0.0
 11
73.34999999999999
 21
57.84999999999991
 31
0.0
  0
ARC
  5
14723
330
DE84
100
AcDbEntity
  8
0
100
AcDbCircle
 10
69.49999999999997
 20
67.25
 30
0.0
 40
0.5
100
AcDbArc
 50
270.0
 51
0.0
  0
ARC
  5
14724
330
DE84
100
AcDbEntity
  8
0
100
AcDbCircle
 10
69.49999999999997
 20
65.75
 30
0.0
 40
0.5
100
AcDbArc
 50
0.0
 51
90.0
  0
ARC
  5
14725
330
DE84
100
AcDbEntity
  8
0
100
AcDbCircle
 10
64.59999999999999
 20
62.25
 30
0.0
 40
1.899999
100
AcDbArc
 50
74.63968248079986
 51
144.66554074432
  0
CIRCLE
  5
14726
330
DE84
100
AcDbEntity
  8
0
100
AcDbCircle
 10
66.27297327300604
 20
64.52297327300607
 30
0.0
 40
0.525
  0
CIRCLE
  5
14727
330
DE84
100
AcDbEntity
  8
0
100
AcDbCircle
 10
66.27297077300918
 20
64.52297077300909
 30
0.0
 40
0.9
  0
CIRCLE
  5
14728
330
DE84
100
AcDbEntity
  8
0
100
AcDbCircle
 10
66.27297077300918
 20
64.52297077300909
 30
0.0
 40
1.25
  0
CIRCLE
  5
1472B
330
DE84
100
AcDbEntity
  8
0
100
AcDbCircle
 10
56.72703422698444
 20
64.52297577300169
 30
0.0
 40
0.525
  0
CIRCLE
  5
1472C
330
DE84
100
AcDbEntity
  8
0
100
AcDbCircle
 10
56.72702999999998
 20
64.52296999999998
 30
0.0
 40
1.25
  0
CIRCLE
  5
1472D
330
DE84
100
AcDbEntity
  8
0
100
AcDbCircle
 10
56.72702999999998
 20
64.52296999999998
 30
0.0
 40
0.9
  0
ARC
  5
14730
330
DE84
100
AcDbEntity
  8
0
100
AcDbCircle
 10
61.49999999999997
 20
59.75
 30
0.0
 40
6.4
100
AcDbArc
 50
55.47531384320655
 51
124.5246825149912
  0
LWPOLYLINE
  5
14731
330
DE84
100
AcDbEntity
  8
0
100
AcDbPolyline
 90
        4
 70
     1
 43
0.0
 10
59.90000000000001
 20
64.0
 10
63.09999999999999
 20
64.0
 10
63.09999999999999
 20
65.5
 10
59.90000000000001
 20
65.5
  0
ARC
  5
14732
330
DE84
100
AcDbEntity
  8
0
100
AcDbCircle
 10
63.61697000000001
 20
71.98954000000004
 30
0.0
 40
1.9
100
AcDbArc
 50
301.5601999999989
 51
34.99999999997886
  0
CIRCLE
  5
14733
330
DE84
100
AcDbEntity
  8
0
100
AcDbCircle
 10
66.27297327300126
 20
68.47703172698425
 30
0.0
 40
0.525
  0
CIRCLE
  5
14734
330
DE84
100
AcDbEntity
  8
0
100
AcDbCircle
 10
66.27296999999995
 20
68.47703000000001
 30
0.0
 40
0.9
  0
CIRCLE
  5
14737
330
DE84
100
AcDbEntity
  8
0
100
AcDbCircle
 10
66.27296999999995
 20
68.47703000000001
 30
0.0
 40
1.25
  0
ARC
  5
14738
330
DE84
100
AcDbEntity
  8
0
100
AcDbCircle
 10
58.38302999999999
 20
71.98955000000001
 30
0.0
 40
1.9
100
AcDbArc
 50
145.0000000000211
 51
238.4398000000011
  0
ARC
  5
14739
330
DE84
100
AcDbEntity
  8
0
100
AcDbCircle
 10
59.17708999999999
 20
70.95498999999995
 30
0.0
 40
0.3999992
100
AcDbArc
 50
164.6064000000118
 51
337.4001000000156
  0
ARC
  5
1473A
330
DE84
100
AcDbEntity
  8
0
100
AcDbCircle
 10
59.17708999999999
 20
70.95498999999995
 30
0.0
 40
0.3
100
AcDbArc
 50
161.0032999999806
 51
341.0032999999807
  0
CIRCLE
  5
1473B
330
DE84
100
AcDbEntity
  8
0
100
AcDbCircle
 10
56.72702999999998
 20
68.47703999999999
 30
0.0
 40
0.9
  0
CIRCLE
  5
1473C
330
DE84
100
AcDbEntity
  8
0
100
AcDbCircle
 10
56.72703172698764
 20
68.47703172698766
 30
0.0
 40
0.525
  0
CIRCLE
  5
1473F
330
DE84
100
AcDbEntity
  8
0
100
AcDbCircle
 10
56.72702999999998
 20
68.47703999999999
 30
0.0
 40
1.25
  0
LWPOLYLINE
  5
14740
330
DE84
100
AcDbEntity
  8
0
100
AcDbPolyline
 90
        3
 70
     0
 43
0.0
 10
59.04999999999998
 20
72.0002400103308
 10
59.04999999999998
 20
72.55000000000018
 10
59.2013646026509
 20
72.55000000000018
  0
ARC
  5
14741
330
DE84
100
AcDbEntity
  8
0
100
AcDbCircle
 10
61.49999999999997
 20
73.25
 30
0.0
 40
6.4
100
AcDbArc
 50
235.4752810195497
 51
304.5246825149913
  0
ARC
  5
14742
330
DE84
100
AcDbEntity
  8
0
100
AcDbCircle
 10
60.99999999999997
 20
76.25
 30
0.0
 40
6.899999
100
AcDbArc
 50
238.4398000000011
 51
301.5601999999989
  0
LWPOLYLINE
  5
14743
330
DE84
100
AcDbEntity
  8
0
100
AcDbPolyline
 90
        4
 70
     0
 43
0.0
 10
60.27430551888674
 20
72.55000000000018
 10
62.95000000000001
 20
72.55000000000018
 10
62.95000000000001
 20
70.95000000000005
 10
59.6082864705435
 20
70.95000000000005
  0
LINE
  5
14744
330
DE84
100
AcDbEntity
  8
0
100
AcDbLine
 10
69.49999999999997
 20
66.75
 30
0.0
 11
54.90000000000001
 21
66.75
 31
0.0
  0
LINE
  5
14745
330
DE84
100
AcDbEntity
  8
0
100
AcDbLine
 10
69.49999999999997
 20
66.25
 30
0.0
 11
54.90000000000001
 21
66.25
 31
0.0
  0
LINE
  5
14746
330
DE84
100
AcDbEntity
  8
0
100
AcDbLine
 10
73.34999999999999
 20
71.3499999999999
 30
0.0
 11
70.84862861262852
 21
71.3499999999999
 31
0.0
  0
LINE
  5
14747
330
DE84
100
AcDbEntity
  8
0
100
AcDbLine
 10
70.24999999999997
 20
69.07417672787755
 30
0.0
 11
70.24999999999997
 21
63.92582327212267
 31
0.0
  0
ARC
  5
149C8
330
DE84
100
AcDbEntity
  8
0
100
AcDbCircle
 10
54.90000000000001
 20
76.75
 30
0.0
 40
3.0
100
AcDbArc
 50
90.0
 51
180.0
  0
CIRCLE
  5
149C9
330
DE84
100
AcDbEntity
  8
0
100
AcDbCircle
 10
53.49999999999997
 20
91.0
 30
0.0
 40
4.75
  0
ARC
  5
149CA
330
DE84
100
AcDbEntity
  8
0
100
AcDbCircle
 10
53.49999999999997
 20
91.0
 30
0.0
 40
6.75
100
AcDbArc
 50
240.1736275039399
 51
299.82637249606
  0
ARC
  5
149CB
330
DE84
100
AcDbEntity
  8
0
100
AcDbCircle
 10
53.49999999999997
 20
91.0
 30
0.0
 40
5.9
100
AcDbArc
 50
244.0314409251152
 51
295.9685590748848
  0
ARC
  5
149CC
330
DE84
100
AcDbEntity
  8
0
100
AcDbCircle
 10
53.49999999999997
 20
91.0
 30
0.0
 40
5.9
100
AcDbArc
 50
64.03144092511519
 51
115.9685590748848
  0
ARC
  5
149CD
330
DE84
100
AcDbEntity
  8
0
100
AcDbCircle
 10
53.49999999999997
 20
91.0
 30
0.0
 40
6.75
100
AcDbArc
 50
60.17362750393996
 51
119.82637249606
  0
LINE
  5
149CE
330
DE84
100
AcDbEntity
  8
0
100
AcDbLine
 10
62.49999999999997
 20
99.37386354243381
 30
0.0
 11
17.50000000000003
 21
99.37386354243381
 31
0.0
  0
LINE
  5
149CF
330
DE84
100
AcDbEntity
  8
0
100
AcDbLine
 10
49.49999999999997
 20
82.0
 30
0.0
 11
62.99999999999997
 21
82.0
 31
0.0
  0
LINE
  5
149D0
330
DE84
100
AcDbEntity
  8
0
100
AcDbLine
 10
17.79999999999998
 20
101.0
 30
0.0
 11
62.20000000000002
 21
101.0
 31
0.0
  0
LINE
  5
149D1
330
DE84
100
AcDbEntity
  8
0
100
AcDbLine
 10
9.749999999999971
 20
106.0999999999999
 30
0.0
 11
9.750000000000028
 21
92.90000000000009
 31
0.0
  0
ARC
  5
149D2
330
DE84
100
AcDbEntity
  8
0
100
AcDbCircle
 10
49.79456869575935
 20
97.4631477508683
 30
0.0
 40
0.7000000000000001
100
AcDbArc
 50
225.0
 51
299.82637249606
  0
LINE
  5
149D3
330
DE84
100
AcDbEntity
  8
0
100
AcDbLine
 10
49.25735931288071
 20
97.01040764008576
 30
0.0
 11
49.77153591802661
 21
96.49623103493969
 31
0.0
  0
ARC
  5
149D4
330
DE84
100
AcDbEntity
  8
0
100
AcDbCircle
 10
43.70543130424064
 20
97.4631477508683
 30
0.0
 40
0.7000000000000001
100
AcDbArc
 50
240.1736275039399
 51
314.9999999999999
  0
LINE
  5
149D5
330
DE84
100
AcDbEntity
  8
0
100
AcDbLine
 10
44.24264068711929
 20
97.01040764008576
 30
0.0
 11
43.72846408197339
 21
96.49623103493969
 31
0.0
  0
ARC
  5
149D8
330
DE84
100
AcDbEntity
  8
0
100
AcDbCircle
 10
45.12652416360251
 20
96.12652416360242
 30
0.0
 40
1.25
100
AcDbArc
 50
314.9999999999999
 51
134.9999999999999
  0
CIRCLE
  5
149DB
330
DE84
100
AcDbEntity
  8
0
100
AcDbCircle
 10
45.12652416360251
 20
96.12652416360242
 30
0.0
 40
0.9
  0
CIRCLE
  5
149DC
330
DE84
100
AcDbEntity
  8
0
100
AcDbCircle
 10
48.37347583639749
 20
96.12652416360242
 30
0.0
 40
0.9
  0
ARC
  5
149DD
330
DE84
100
AcDbEntity
  8
0
100
AcDbCircle
 10
48.37347583639749
 20
96.12652416360242
 30
0.0
 40
1.25
100
AcDbArc
 50
45.00000000000006
 51
225.0
  0
ARC
  5
149DE
330
DE84
100
AcDbEntity
  8
0
100
AcDbCircle
 10
36.29456869575935
 20
97.4631477508683
 30
0.0
 40
0.7000000000000001
100
AcDbArc
 50
225.0
 51
299.82637249606
  0
LINE
  5
149DF
330
DE84
100
AcDbEntity
  8
0
100
AcDbLine
 10
35.75735931288071
 20
97.01040764008576
 30
0.0
 11
36.27153591802662
 21
96.49623103493969
 31
0.0
  0
ARC
  5
149E0
330
DE84
100
AcDbEntity
  8
0
100
AcDbCircle
 10
30.20543130424065
 20
97.4631477508683
 30
0.0
 40
0.7000000000000001
100
AcDbArc
 50
240.1736275039399
 51
314.9999999999999
  0
LINE
  5
149E1
330
DE84
100
AcDbEntity
  8
0
100
AcDbLine
 10
30.74264068711929
 20
97.01040764008576
 30
0.0
 11
30.22846408197338
 21
96.49623103493969
 31
0.0
  0
ARC
  5
149E2
330
DE84
100
AcDbEntity
  8
0
100
AcDbCircle
 10
31.62652416360251
 20
96.12652416360242
 30
0.0
 40
1.25
100
AcDbArc
 50
314.9999999999999
 51
134.9999999999999
  0
CIRCLE
  5
149E5
330
DE84
100
AcDbEntity
  8
0
100
AcDbCircle
 10
31.62652416360251
 20
96.12652416360242
 30
0.0
 40
0.9
  0
CIRCLE
  5
149E8
330
DE84
100
AcDbEntity
  8
0
100
AcDbCircle
 10
34.87347583639749
 20
96.12652416360242
 30
0.0
 40
0.9
  0
ARC
  5
149E9
330
DE84
100
AcDbEntity
  8
0
100
AcDbCircle
 10
34.87347583639749
 20
96.12652416360242
 30
0.0
 40
1.25
100
AcDbArc
 50
45.00000000000006
 51
225.0
  0
ARC
  5
149EA
330
DE84
100
AcDbEntity
  8
0
100
AcDbCircle
 10
39.99999999999997
 20
91.0
 30
0.0
 40
5.9
100
AcDbArc
 50
64.03144092511519
 51
115.9685590748848
  0
LINE
  5
149EB
330
DE84
100
AcDbEntity
  8
0
100
AcDbLine
 10
22.25735931288071
 20
97.01040764008576
 30
0.0
 11
22.77153591802662
 21
96.49623103493969
 31
0.0
  0
ARC
  5
149EC
330
DE84
100
AcDbEntity
  8
0
100
AcDbCircle
 10
22.79456869575935
 20
97.4631477508683
 30
0.0
 40
0.7000000000000001
100
AcDbArc
 50
225.0
 51
299.82637249606
  0
ARC
  5
149ED
330
DE84
100
AcDbEntity
  8
0
100
AcDbCircle
 10
26.49999999999997
 20
91.0
 30
0.0
 40
5.9
100
AcDbArc
 50
64.03144092511519
 51
115.9685590748848
  0
CIRCLE
  5
149EE
330
DE84
100
AcDbEntity
  8
0
100
AcDbCircle
 10
21.37347583639749
 20
96.12652416360242
 30
0.0
 40
0.9
  0
ARC
  5
149F0
330
DE84
100
AcDbEntity
  8
0
100
AcDbCircle
 10
21.37347583639749
 20
96.12652416360242
 30
0.0
 40
1.25
100
AcDbArc
 50
45.00000000000006
 51
225.0
  0
ARC
  5
149F3
330
DE84
100
AcDbEntity
  8
0
100
AcDbCircle
 10
65.99999999999997
 20
91.0
 30
0.0
 40
50.0
100
AcDbArc
 50
171.890385544004
 51
188.1096144559959
  0
LINE
  5
149F4
330
DE84
100
AcDbEntity
  8
0
100
AcDbLine
 10
16.49999999999997
 20
99.50000000000001
 30
0.0
 11
16.49999999999997
 21
82.5
 31
0.0
  0
ARC
  5
149F5
330
DE84
100
AcDbEntity
  8
0
100
AcDbCircle
 10
18.49999999999997
 20
73.25
 30
0.0
 40
6.4
100
AcDbArc
 50
55.47531748501688
 51
124.5246825149831
  0
LWPOLYLINE
  5
149F6
330
DE84
100
AcDbEntity
  8
0
100
AcDbPolyline
 90
        8
 70
     1
 43
0.0
 10
15.70000000000002
 20
76.0
 10
20.30000000000004
 20
76.0
 42
0.4142135623730951
 10
20.50000000000009
 20
76.20000000000004
 10
20.50000000000009
 20
78.30000000000018
 42
0.4142135623730895
 10
20.30000000000004
 20
78.5
 10
15.70000000000007
 20
78.50000000000022
 42
0.4142135623730951
 10
15.50000000000008
 20
78.30000000000018
 10
15.50000000000008
 20
76.20000000000004
 42
0.4142135623730951
  0
LINE
  5
149F7
330
DE84
100
AcDbEntity
  8
0
100
AcDbLine
 10
10.49999999999997
 20
79.75
 30
0.0
 11
25.1
 21
79.75
 31
0.0
  0
ARC
  5
149FA
330
DE84
100
AcDbEntity
  8
0
100
AcDbCircle
 10
21.37347583639749
 20
85.87347583639758
 30
0.0
 40
1.25
100
AcDbArc
 50
134.9999999999999
 51
314.9999999999999
  0
ARC
  5
149FB
330
DE84
100
AcDbEntity
  8
0
100
AcDbCircle
 10
26.49999999999997
 20
91.0
 30
0.0
 40
6.75
100
AcDbArc
 50
150.17362750394
 51
209.82637249606
  0
LINE
  5
149FC
330
DE84
100
AcDbEntity
  8
0
100
AcDbLine
 10
16.99999999999997
 20
82.0
 30
0.0
 11
30.49999999999997
 21
82.0
 31
0.0
  0
LINE
  5
149FD
330
DE84
100
AcDbEntity
  8
0
100
AcDbLine
 10
9.749999999999971
 20
89.10000000000014
 30
0.0
 11
9.749999999999971
 21
77.42582327212244
 31
0.0
  0
ARC
  5
149FE
330
DE84
100
AcDbEntity
  8
0
100
AcDbCircle
 10
17.99999999999997
 20
76.25
 30
0.0
 40
1.1
100
AcDbArc
 50
300.0796000000323
 51
346.8633999999862
  0
ARC
  5
149FF
330
DE84
100
AcDbEntity
  8
0
100
AcDbCircle
 10
17.99999999999997
 20
76.25
 30
0.0
 40
0.9
100
AcDbArc
 50
289.6857000000051
 51
343.8724000000141
  0
ARC
  5
14A00
330
DE84
100
AcDbEntity
  8
0
100
AcDbCircle
 10
16.64788999999999
 20
75.39454999999998
 30
0.0
 40
0.7000000000000001
100
AcDbArc
 50
341.0031999999744
 51
32.3205900000274
  0
ARC
  5
14A01
330
DE84
100
AcDbEntity
  8
0
100
AcDbCircle
 10
16.42298000000002
 20
75.61518999999998
 30
0.0
 40
0.6000000000000001
100
AcDbArc
 50
344.6062999999583
 51
21.92661000003019
  0
ARC
  5
14A02
330
DE84
100
AcDbEntity
  8
0
100
AcDbCircle
 10
17.99999999999997
 20
76.25
 30
0.0
 40
1.1
100
AcDbArc
 50
193.1369000000023
 51
201.9265999999987
  0
ARC
  5
14A03
330
DE84
100
AcDbEntity
  8
0
100
AcDbCircle
 10
17.99999999999997
 20
76.25
 30
0.0
 40
0.9
100
AcDbArc
 50
196.1279999999981
 51
212.3205999999848
  0
ARC
  5
14A04
330
DE84
100
AcDbEntity
  8
0
100
AcDbCircle
 10
18.85203999999996
 20
74.77893999999992
 30
0.0
 40
0.6000000000000001
100
AcDbArc
 50
120.0796000000322
 51
157.4000000000218
  0
ARC
  5
14A05
330
DE84
100
AcDbEntity
  8
0
100
AcDbCircle
 10
18.53896999999998
 20
74.74351999999999
 30
0.0
 40
0.7000000000000001
100
AcDbArc
 50
109.6855999999799
 51
161.0031000000165
  0
CIRCLE
  5
14A06
330
DE84
100
AcDbEntity
  8
0
100
AcDbCircle
 10
13.72702999999998
 20
78.02296999999999
 30
0.0
 40
0.9
  0
CIRCLE
  5
14A07
330
DE84
100
AcDbEntity
  8
0
100
AcDbCircle
 10
13.72703172698763
 20
78.02297327300471
 30
0.0
 40
0.525
  0
CIRCLE
  5
14A0A
330
DE84
100
AcDbEntity
  8
0
100
AcDbCircle
 10
13.72702999999998
 20
78.02296999999999
 30
0.0
 40
1.25
  0
ARC
  5
14A0B
330
DE84
100
AcDbEntity
  8
0
100
AcDbCircle
 10
10.49999999999997
 20
79.25
 30
0.0
 40
0.5
100
AcDbArc
 50
90.0
 51
180.0
  0
LINE
  5
14A0C
330
DE84
100
AcDbEntity
  8
0
100
AcDbLine
 10
6.650000000000005
 20
75.15000000000009
 30
0.0
 11
9.151371387371426
 21
75.15000000000009
 31
0.0
  0
ARC
  5
14A0D
330
DE84
100
AcDbEntity
  8
0
100
AcDbCircle
 10
16.99999999999997
 20
82.5
 30
0.0
 40
0.5
100
AcDbArc
 50
180.0
 51
270.0
  0
LINE
  5
14A0E
330
DE84
100
AcDbEntity
  8
0
100
AcDbLine
 10
6.049999999999982
 20
92.90000000000009
 30
0.0
 11
16.03611304151766
 21
92.90000000000009
 31
0.0
  0
CIRCLE
  5
14A0F
330
DE84
100
AcDbEntity
  8
0
100
AcDbCircle
 10
7.849999999999994
 20
91.0
 30
0.0
 40
0.65
  0
LINE
  5
14A10
330
DE84
100
AcDbEntity
  8
0
100
AcDbLine
 10
6.049999999999982
 20
89.09999999999991
 30
0.0
 11
16.03611304151766
 21
89.10000000000014
 31
0.0
  0
LINE
  5
14A12
330
DE84
100
AcDbEntity
  8
0
100
AcDbLine
 10
6.049999999999982
 20
89.09999999999991
 30
0.0
 11
6.049999999999982
 21
92.90000000000009
 31
0.0
  0
ARC
  5
14A14
330
DE84
100
AcDbEntity
  8
0
100
AcDbCircle
 10
49.79456869575935
 20
84.5368522491317
 30
0.0
 40
0.7000000000000001
100
AcDbArc
 50
60.17362750393996
 51
134.9999999999999
  0
LINE
  5
14A15
330
DE84
100
AcDbEntity
  8
0
100
AcDbLine
 10
49.25735931288071
 20
84.98959235991424
 30
0.0
 11
49.77153591802661
 21
85.50376896506032
 31
0.0
  0
CIRCLE
  5
14A18
330
DE84
100
AcDbEntity
  8
0
100
AcDbCircle
 10
48.37347583639749
 20
85.87347583639758
 30
0.0
 40
0.9
  0
ARC
  5
14A19
330
DE84
100
AcDbEntity
  8
0
100
AcDbCircle
 10
48.37347583639749
 20
85.87347583639758
 30
0.0
 40
1.25
100
AcDbArc
 50
134.9999999999999
 51
314.9999999999999
  0
ARC
  5
14A1A
330
DE84
100
AcDbEntity
  8
0
100
AcDbCircle
 10
43.70543130424064
 20
84.5368522491317
 30
0.0
 40
0.7000000000000001
100
AcDbArc
 50
45.00000000000006
 51
119.82637249606
  0
LINE
  5
14A1B
330
DE84
100
AcDbEntity
  8
0
100
AcDbLine
 10
44.24264068711929
 20
84.98959235991424
 30
0.0
 11
43.72846408197327
 21
85.50376896506032
 31
0.0
  0
ARC
  5
14A1E
330
DE84
100
AcDbEntity
  8
0
100
AcDbCircle
 10
45.12652416360251
 20
85.87347583639758
 30
0.0
 40
1.25
100
AcDbArc
 50
225.0
 51
45.00000000000006
  0
CIRCLE
  5
14A1F
330
DE84
100
AcDbEntity
  8
0
100
AcDbCircle
 10
45.12652416360251
 20
85.87347583639758
 30
0.0
 40
0.9
  0
ARC
  5
14A20
330
DE84
100
AcDbEntity
  8
0
100
AcDbCircle
 10
36.29456869575935
 20
84.5368522491317
 30
0.0
 40
0.7000000000000001
100
AcDbArc
 50
60.17362750393996
 51
134.9999999999999
  0
LINE
  5
14A21
330
DE84
100
AcDbEntity
  8
0
100
AcDbLine
 10
35.75735931288071
 20
84.98959235991424
 30
0.0
 11
36.27153591802662
 21
85.50376896506032
 31
0.0
  0
ARC
  5
14A22
330
DE84
100
AcDbEntity
  8
0
100
AcDbCircle
 10
31.62652416360251
 20
85.87347583639758
 30
0.0
 40
1.25
100
AcDbArc
 50
225.0
 51
45.00000000000006
  0
ARC
  5
14A23
330
DE84
100
AcDbEntity
  8
0
100
AcDbCircle
 10
30.20543130424065
 20
84.5368522491317
 30
0.0
 40
0.7000000000000001
100
AcDbArc
 50
45.00000000000006
 51
119.82637249606
  0
LINE
  5
14A24
330
DE84
100
AcDbEntity
  8
0
100
AcDbLine
 10
30.74264068711929
 20
84.98959235991424
 30
0.0
 11
30.22846408197327
 21
85.50376896506032
 31
0.0
  0
CIRCLE
  5
14A27
330
DE84
100
AcDbEntity
  8
0
100
AcDbCircle
 10
31.62652416360251
 20
85.87347583639758
 30
0.0
 40
0.9
  0
ARC
  5
14A28
330
DE84
100
AcDbEntity
  8
0
100
AcDbCircle
 10
34.87347583639749
 20
85.87347583639758
 30
0.0
 40
1.25
100
AcDbArc
 50
134.9999999999999
 51
314.9999999999999
  0
CIRCLE
  5
14A2B
330
DE84
100
AcDbEntity
  8
0
100
AcDbCircle
 10
34.87347583639749
 20
85.87347583639758
 30
0.0
 40
0.9
  0
ARC
  5
14A2C
330
DE84
100
AcDbEntity
  8
0
100
AcDbCircle
 10
39.99999999999997
 20
91.0
 30
0.0
 40
5.9
100
AcDbArc
 50
244.0314409251152
 51
295.9685590748848
  0
LINE
  5
14A2D
330
DE84
100
AcDbEntity
  8
0
100
AcDbLine
 10
22.25735931288071
 20
84.98959235991424
 30
0.0
 11
22.77153591802662
 21
85.50376896506032
 31
0.0
  0
ARC
  5
14A2E
330
DE84
100
AcDbEntity
  8
0
100
AcDbCircle
 10
22.79456869575935
 20
84.5368522491317
 30
0.0
 40
0.7000000000000001
100
AcDbArc
 50
60.17362750393996
 51
134.9999999999999
  0
CIRCLE
  5
14A2F
330
DE84
100
AcDbEntity
  8
0
100
AcDbCircle
 10
21.37347583639749
 20
85.87347583639758
 30
0.0
 40
0.9
  0
ARC
  5
14A30
330
DE84
100
AcDbEntity
  8
0
100
AcDbCircle
 10
26.49999999999997
 20
91.0
 30
0.0
 40
5.9
100
AcDbArc
 50
244.0314409251152
 51
295.9685590748848
  0
ARC
  5
14A33
330
DE84
100
AcDbEntity
  8
0
100
AcDbCircle
 10
39.99999999999997
 20
91.0
 30
0.0
 40
6.75
100
AcDbArc
 50
240.1736275039399
 51
299.82637249606
  0
ARC
  5
14A34
330
DE84
100
AcDbEntity
  8
0
100
AcDbCircle
 10
39.99999999999997
 20
73.25
 30
0.0
 40
6.75
100
AcDbArc
 50
60.17362750393996
 51
119.82637249606
  0
ARC
  5
14A35
330
DE84
100
AcDbEntity
  8
0
100
AcDbCircle
 10
36.97864269921317
 20
79.45333781612635
 30
0.0
 40
1.0
100
AcDbArc
 50
225.0
 51
295.9685590748848
  0
LINE
  5
14A36
330
DE84
100
AcDbEntity
  8
0
100
AcDbLine
 10
30.99999999999997
 20
80.0
 30
0.0
 11
48.99999999999997
 21
80.0
 31
0.0
  0
CIRCLE
  5
14A38
330
DE84
100
AcDbEntity
  8
0
100
AcDbCircle
 10
23.27297077300918
 20
78.02297077300909
 30
0.0
 40
0.525
  0
CIRCLE
  5
14A39
330
DE84
100
AcDbEntity
  8
0
100
AcDbCircle
 10
23.27296999999996
 20
78.02296999999999
 30
0.0
 40
0.9
  0
CIRCLE
  5
14A3C
330
DE84
100
AcDbEntity
  8
0
100
AcDbCircle
 10
23.27296999999996
 20
78.02296999999999
 30
0.0
 40
1.25
  0
ARC
  5
14A3D
330
DE84
100
AcDbEntity
  8
0
100
AcDbCircle
 10
28.59999999999999
 20
76.65000000000009
 30
0.0
 40
0.5
100
AcDbArc
 50
180.0
 51
270.0
  0
LINE
  5
14A3E
330
DE84
100
AcDbEntity
  8
0
100
AcDbLine
 10
28.59999999999999
 20
76.15000000000009
 30
0.0
 11
29.99999999999997
 21
76.15000000000009
 31
0.0
  0
ARC
  5
14A3F
330
DE84
100
AcDbEntity
  8
0
100
AcDbCircle
 10
25.1
 20
76.75
 30
0.0
 40
3.0
100
AcDbArc
 50
0.0
 51
90.0
  0
ARC
  5
14A40
330
DE84
100
AcDbEntity
  8
0
100
AcDbCircle
 10
36.29456869575935
 20
79.7131477508683
 30
0.0
 40
0.7000000000000001
100
AcDbArc
 50
225.0
 51
299.82637249606
  0
LINE
  5
14A41
330
DE84
100
AcDbEntity
  8
0
100
AcDbLine
 10
35.75735931288071
 20
79.26040764008575
 30
0.0
 11
36.27153591802662
 21
78.74623103493968
 31
0.0
  0
ARC
  5
14A42
330
DE84
100
AcDbEntity
  8
0
100
AcDbCircle
 10
33.79666218387374
 20
76.27135730078681
 30
0.0
 40
1.0
100
AcDbArc
 50
334.0314409251152
 51
45.00000000000006
  0
LINE
  5
14A43
330
DE84
100
AcDbEntity
  8
0
100
AcDbLine
 10
33.98959235991433
 20
77.49264068711932
 30
0.0
 11
34.50376896506023
 21
76.97846408197347
 31
0.0
  0
ARC
  5
14A44
330
DE84
100
AcDbEntity
  8
0
100
AcDbCircle
 10
33.53685224913167
 20
76.95543130424062
 30
0.0
 40
0.7000000000000001
100
AcDbArc
 50
330.17362750394
 51
45.00000000000006
  0
CIRCLE
  5
14A47
330
DE84
100
AcDbEntity
  8
0
100
AcDbCircle
 10
34.87347583639749
 20
78.37652416360242
 30
0.0
 40
0.9
  0
CIRCLE
  5
14A48
330
DE84
100
AcDbEntity
  8
0
100
AcDbCircle
 10
34.87347583639749
 20
78.37652416360242
 30
0.0
 40
0.525
  0
ARC
  5
14A49
330
DE84
100
AcDbEntity
  8
0
100
AcDbCircle
 10
34.87347583639749
 20
78.37652416360242
 30
0.0
 40
1.25000000000001
100
AcDbArc
 50
45.00000000000006
 51
225.0
  0
LINE
  5
14A4A
330
DE84
100
AcDbEntity
  8
0
100
AcDbLine
 10
30.99999999999997
 20
81.5
 30
0.0
 11
30.99999999999997
 21
80.0
 31
0.0
  0
ARC
  5
14A4B
330
DE84
100
AcDbEntity
  8
0
100
AcDbCircle
 10
30.49999999999997
 20
81.5
 30
0.0
 40
0.5
100
AcDbArc
 50
0.0
 51
90.0
  0
ARC
  5
14A4C
330
DE84
100
AcDbEntity
  8
0
100
AcDbCircle
 10
30.70000000000002
 20
76.29999999999995
 30
0.0
 40
0.3
100
AcDbArc
 50
270.0
 51
0.0
  0
LINE
  5
14A4D
330
DE84
100
AcDbEntity
  8
0
100
AcDbLine
 10
29.99999999999997
 20
76.0
 30
0.0
 11
30.70000000000002
 21
76.0
 31
0.0
  0
LINE
  5
14A4E
330
DE84
100
AcDbEntity
  8
0
100
AcDbLine
 10
30.99999999999997
 20
80.0
 30
0.0
 11
30.99999999999997
 21
76.29999999999995
 31
0.0
  0
ARC
  5
14A4F
330
DE84
100
AcDbEntity
  8
0
100
AcDbCircle
 10
20.22705006082285
 20
73.25
 30
0.0
 40
11.11840592854997
100
AcDbArc
 50
3.012093622602308
 51
14.32002167729528
  0
LINE
  5
14A50
330
DE84
100
AcDbEntity
  8
0
100
AcDbLine
 10
30.99999999999997
 20
82.0
 30
0.0
 11
33.01999999999996
 21
84.01999999999999
 31
0.0
  0
ARC
  5
14A51
330
DE84
100
AcDbEntity
  8
0
100
AcDbCircle
 10
26.49999999999997
 20
91.0
 30
0.0
 40
6.75
100
AcDbArc
 50
240.1736275039399
 51
299.82637249606
  0
ARC
  5
14A53
330
DE84
100
AcDbEntity
  8
0
100
AcDbCircle
 10
51.4
 20
76.65000000000009
 30
0.0
 40
0.5
100
AcDbArc
 50
270.0
 51
0.0
  0
LINE
  5
14A54
330
DE84
100
AcDbEntity
  8
0
100
AcDbLine
 10
51.4
 20
76.15000000000009
 30
0.0
 11
49.99999999999997
 21
76.15000000000009
 31
0.0
  0
ARC
  5
14A55
330
DE84
100
AcDbEntity
  8
0
100
AcDbCircle
 10
49.49999999999997
 20
81.5
 30
0.0
 40
0.5
100
AcDbArc
 50
90.0
 51
180.0
  0
LINE
  5
14A56
330
DE84
100
AcDbEntity
  8
0
100
AcDbLine
 10
48.99999999999997
 20
81.5
 30
0.0
 11
48.99999999999997
 21
80.0
 31
0.0
  0
ARC
  5
14A57
330
DE84
100
AcDbEntity
  8
0
100
AcDbCircle
 10
46.46314775086821
 20
76.95543130424062
 30
0.0
 40
0.7000000000000001
100
AcDbArc
 50
134.9999999999999
 51
209.82637249606
  0
LINE
  5
14A58
330
DE84
100
AcDbEntity
  8
0
100
AcDbLine
 10
46.01040764008567
 20
77.49264068711932
 30
0.0
 11
45.49623103493977
 21
76.97846408197347
 31
0.0
  0
ARC
  5
14A59
330
DE84
100
AcDbEntity
  8
0
100
AcDbCircle
 10
46.20333781612626
 20
76.27135730078681
 30
0.0
 40
1.0
100
AcDbArc
 50
134.9999999999999
 51
205.9685590748848
  0
ARC
  5
14A5A
330
DE84
100
AcDbEntity
  8
0
100
AcDbCircle
 10
49.29999999999998
 20
76.29999999999995
 30
0.0
 40
0.3
100
AcDbArc
 50
180.0
 51
270.0
  0
LINE
  5
14A5B
330
DE84
100
AcDbEntity
  8
0
100
AcDbLine
 10
49.99999999999997
 20
76.0
 30
0.0
 11
49.29999999999998
 21
76.0
 31
0.0
  0
CIRCLE
  5
14A5C
330
DE84
100
AcDbEntity
  8
0
100
AcDbCircle
 10
45.12652416360251
 20
78.37652416360242
 30
0.0
 40
0.525
  0
LINE
  5
14A5D
330
DE84
100
AcDbEntity
  8
0
100
AcDbLine
 10
48.99999999999997
 20
80.0
 30
0.0
 11
48.99999999999997
 21
76.29999999999995
 31
0.0
  0
ARC
  5
14A5E
330
DE84
100
AcDbEntity
  8
0
100
AcDbCircle
 10
59.77294993917709
 20
73.25
 30
0.0
 40
11.11840592854997
100
AcDbArc
 50
165.6799783227047
 51
176.9879063773977
  0
ARC
  5
14A5F
330
DE84
100
AcDbEntity
  8
0
100
AcDbCircle
 10
43.70543130424064
 20
79.7131477508683
 30
0.0
 40
0.7000000000000001
100
AcDbArc
 50
240.1736275039399
 51
314.9999999999999
  0
LINE
  5
14A60
330
DE84
100
AcDbEntity
  8
0
100
AcDbLine
 10
44.24264068711929
 20
79.26040764008575
 30
0.0
 11
43.72846408197339
 21
78.74623103493968
 31
0.0
  0
ARC
  5
14A62
330
DE84
100
AcDbEntity
  8
0
100
AcDbCircle
 10
43.02135730078677
 20
79.45333781612635
 30
0.0
 40
1.0
100
AcDbArc
 50
244.0314409251152
 51
314.9999999999999
  0
ARC
  5
14A63
330
DE84
100
AcDbEntity
  8
0
100
AcDbCircle
 10
39.99999999999997
 20
73.25
 30
0.0
 40
5.9
100
AcDbArc
 50
64.03144092511519
 51
115.9685590748848
  0
ARC
  5
14A64
330
DE84
100
AcDbEntity
  8
0
100
AcDbCircle
 10
45.12652416360251
 20
78.37652416360242
 30
0.0
 40
1.25
100
AcDbArc
 50
314.9999999999999
 51
134.9999999999999
  0
CIRCLE
  5
14A67
330
DE84
100
AcDbEntity
  8
0
100
AcDbCircle
 10
45.12652416360251
 20
78.37652416360242
 30
0.0
 40
0.9
  0
LINE
  5
14A68
330
DE84
100
AcDbEntity
  8
0
100
AcDbLine
 10
48.99999999999997
 20
82.0
 30
0.0
 11
46.97999999999993
 21
84.01999999999999
 31
0.0
  0
ARC
  5
14A69
330
DE84
100
AcDbEntity
  8
0
100
AcDbCircle
 10
36.97864269921317
 20
97.20333781612636
 30
0.0
 40
1.0
100
AcDbArc
 50
225.0
 51
295.9685590748848
  0
ARC
  5
14A6A
330
DE84
100
AcDbEntity
  8
0
100
AcDbCircle
 10
36.97864269921317
 20
84.79666218387365
 30
0.0
 40
1.0
100
AcDbArc
 50
64.03144092511519
 51
134.9999999999999
  0
CIRCLE
  5
14A6B
330
DE84
100
AcDbEntity
  8
0
100
AcDbCircle
 10
39.99999999999997
 20
91.0
 30
0.0
 40
4.75
  0
LINE
  5
14A6C
330
DE84
100
AcDbEntity
  8
0
100
AcDbLine
 10
32.51040764008568
 20
95.24264068711932
 30
0.0
 11
31.99623103493977
 21
94.72846408197346
 31
0.0
  0
ARC
  5
14A6D
330
DE84
100
AcDbEntity
  8
0
100
AcDbCircle
 10
32.96314775086822
 20
94.70543130424061
 30
0.0
 40
0.7000000000000001
100
AcDbArc
 50
134.9999999999999
 51
209.82637249606
  0
ARC
  5
14A6E
330
DE84
100
AcDbEntity
  8
0
100
AcDbCircle
 10
32.70333781612626
 20
94.02135730078681
 30
0.0
 40
1.0
100
AcDbArc
 50
134.9999999999999
 51
205.9685590748848
  0
LINE
  5
14A6F
330
DE84
100
AcDbEntity
  8
0
100
AcDbLine
 10
33.98959235991433
 20
95.24264068711932
 30
0.0
 11
34.50376896506023
 21
94.72846408197346
 31
0.0
  0
ARC
  5
14A70
330
DE84
100
AcDbEntity
  8
0
100
AcDbCircle
 10
33.53685224913167
 20
94.70543130424061
 30
0.0
 40
0.7000000000000001
100
AcDbArc
 50
330.17362750394
 51
45.00000000000006
  0
ARC
  5
14A71
330
DE84
100
AcDbEntity
  8
0
100
AcDbCircle
 10
33.79666218387374
 20
94.02135730078681
 30
0.0
 40
1.0
100
AcDbArc
 50
334.0314409251152
 51
45.00000000000006
  0
CIRCLE
  5
14A72
330
DE84
100
AcDbEntity
  8
0
100
AcDbCircle
 10
31.62652416360251
 20
96.12652416360242
 30
0.0
 40
0.525
  0
CIRCLE
  5
14A73
330
DE84
100
AcDbEntity
  8
0
100
AcDbCircle
 10
34.87347583639749
 20
96.12652416360242
 30
0.0
 40
0.525
  0
LINE
  5
14A74
330
DE84
100
AcDbEntity
  8
0
100
AcDbLine
 10
32.51040764008568
 20
86.75735931288068
 30
0.0
 11
31.99623103493977
 21
87.27153591802652
 31
0.0
  0
CIRCLE
  5
14A75
330
DE84
100
AcDbEntity
  8
0
100
AcDbCircle
 10
31.62652416360251
 20
85.87347583639758
 30
0.0
 40
0.525
  0
LINE
  5
14A76
330
DE84
100
AcDbEntity
  8
0
100
AcDbLine
 10
33.98959235991433
 20
86.75735931288068
 30
0.0
 11
34.50376896506023
 21
87.27153591802652
 31
0.0
  0
CIRCLE
  5
14A77
330
DE84
100
AcDbEntity
  8
0
100
AcDbCircle
 10
34.87347583639749
 20
85.87347583639758
 30
0.0
 40
0.525
  0
ARC
  5
14A78
330
DE84
100
AcDbEntity
  8
0
100
AcDbCircle
 10
32.70333781612626
 20
87.97864269921319
 30
0.0
 40
1.0
100
AcDbArc
 50
154.0314409251152
 51
225.0
  0
ARC
  5
14A79
330
DE84
100
AcDbEntity
  8
0
100
AcDbCircle
 10
32.96314775086822
 20
87.29456869575939
 30
0.0
 40
0.7000000000000001
100
AcDbArc
 50
150.17362750394
 51
225.0
  0
ARC
  5
14A7A
330
DE84
100
AcDbEntity
  8
0
100
AcDbCircle
 10
33.79666218387374
 20
87.97864269921319
 30
0.0
 40
1.0
100
AcDbArc
 50
314.9999999999999
 51
25.96855907488477
  0
ARC
  5
14A7B
330
DE84
100
AcDbEntity
  8
0
100
AcDbCircle
 10
33.53685224913178
 20
87.29456869575939
 30
0.0
 40
0.7000000000000001
100
AcDbArc
 50
314.9999999999999
 51
29.82637249605999
  0
ARC
  5
14A7C
330
DE84
100
AcDbEntity
  8
0
100
AcDbCircle
 10
26.49999999999997
 20
91.0
 30
0.0
 40
6.75
100
AcDbArc
 50
330.17362750394
 51
29.82637249605999
  0
ARC
  5
14A7D
330
DE84
100
AcDbEntity
  8
0
100
AcDbCircle
 10
26.49999999999997
 20
91.0
 30
0.0
 40
5.9
100
AcDbArc
 50
334.0314409251152
 51
25.96855907488477
  0
ARC
  5
14A7E
330
DE84
100
AcDbEntity
  8
0
100
AcDbCircle
 10
39.99999999999997
 20
91.0
 30
0.0
 40
6.75
100
AcDbArc
 50
150.17362750394
 51
209.82637249606
  0
ARC
  5
14A7F
330
DE84
100
AcDbEntity
  8
0
100
AcDbCircle
 10
39.99999999999997
 20
91.0
 30
0.0
 40
5.9
100
AcDbArc
 50
154.0314409251152
 51
205.9685590748848
  0
ARC
  5
14A80
330
DE84
100
AcDbEntity
  8
0
100
AcDbCircle
 10
20.29666218387374
 20
94.02135730078681
 30
0.0
 40
1.0
100
AcDbArc
 50
334.0314409251152
 51
45.00000000000006
  0
ARC
  5
14A81
330
DE84
100
AcDbEntity
  8
0
100
AcDbCircle
 10
20.03685224913167
 20
94.70543130424061
 30
0.0
 40
0.7000000000000001
100
AcDbArc
 50
330.17362750394
 51
45.00000000000006
  0
LINE
  5
14A82
330
DE84
100
AcDbEntity
  8
0
100
AcDbLine
 10
20.48959235991433
 20
95.24264068711932
 30
0.0
 11
21.00376896506023
 21
94.72846408197346
 31
0.0
  0
ARC
  5
14A83
330
DE84
100
AcDbEntity
  8
0
100
AcDbCircle
 10
23.47864269921317
 20
97.20333781612636
 30
0.0
 40
1.0
100
AcDbArc
 50
225.0
 51
295.9685590748848
  0
CIRCLE
  5
14A84
330
DE84
100
AcDbEntity
  8
0
100
AcDbCircle
 10
21.37347583639749
 20
96.12652416360242
 30
0.0
 40
0.525
  0
LINE
  5
14A85
330
DE84
100
AcDbEntity
  8
0
100
AcDbLine
 10
20.48959235991433
 20
86.75735931288068
 30
0.0
 11
21.00376896506023
 21
87.27153591802652
 31
0.0
  0
CIRCLE
  5
14A86
330
DE84
100
AcDbEntity
  8
0
100
AcDbCircle
 10
21.37347583639749
 20
85.87347583639758
 30
0.0
 40
0.525
  0
ARC
  5
14A87
330
DE84
100
AcDbEntity
  8
0
100
AcDbCircle
 10
23.47864269921317
 20
84.79666218387365
 30
0.0
 40
1.0
100
AcDbArc
 50
64.03144092511519
 51
134.9999999999999
  0
ARC
  5
14A88
330
DE84
100
AcDbEntity
  8
0
100
AcDbCircle
 10
20.03685224913178
 20
87.29456869575939
 30
0.0
 40
0.7000000000000001
100
AcDbArc
 50
314.9999999999999
 51
29.82637249605999
  0
ARC
  5
14A89
330
DE84
100
AcDbEntity
  8
0
100
AcDbCircle
 10
20.29666218387374
 20
87.97864269921319
 30
0.0
 40
1.0
100
AcDbArc
 50
314.9999999999999
 51
25.96855907488477
  0
ARC
  5
14A8A
330
DE84
100
AcDbEntity
  8
0
100
AcDbCircle
 10
26.49999999999997
 20
91.0
 30
0.0
 40
5.9
100
AcDbArc
 50
154.0314409251152
 51
205.9685590748848
  0
CIRCLE
  5
14A8B
330
DE84
100
AcDbEntity
  8
0
100
AcDbCircle
 10
26.49999999999997
 20
91.0
 30
0.0
 40
4.75
  0
ARC
  5
14A8C
330
DE84
100
AcDbEntity
  8
0
100
AcDbCircle
 10
29.52135730078678
 20
84.79666218387365
 30
0.0
 40
1.0
100
AcDbArc
 50
45.00000000000006
 51
115.9685590748848
  0
ARC
  5
14A8D
330
DE84
100
AcDbEntity
  8
0
100
AcDbCircle
 10
29.52135730078678
 20
97.20333781612636
 30
0.0
 40
1.0
100
AcDbArc
 50
244.0314409251152
 51
314.9999999999999
  0
ARC
  5
14A8E
330
DE84
100
AcDbEntity
  8
0
100
AcDbCircle
 10
46.46314775086821
 20
94.70543130424061
 30
0.0
 40
0.7000000000000001
100
AcDbArc
 50
134.9999999999999
 51
209.82637249606
  0
LINE
  5
14A8F
330
DE84
100
AcDbEntity
  8
0
100
AcDbLine
 10
47.48959235991432
 20
95.24264068711932
 30
0.0
 11
48.00376896506023
 21
94.72846408197346
 31
0.0
  0
ARC
  5
14A90
330
DE84
100
AcDbEntity
  8
0
100
AcDbCircle
 10
47.03685224913167
 20
94.70543130424061
 30
0.0
 40
0.7000000000000001
100
AcDbArc
 50
330.17362750394
 51
45.00000000000006
  0
ARC
  5
14A91
330
DE84
100
AcDbEntity
  8
0
100
AcDbCircle
 10
47.29666218387373
 20
94.02135730078681
 30
0.0
 40
1.0
100
AcDbArc
 50
334.0314409251152
 51
45.00000000000006
  0
ARC
  5
14A92
330
DE84
100
AcDbEntity
  8
0
100
AcDbCircle
 10
46.20333781612626
 20
94.02135730078681
 30
0.0
 40
1.0
100
AcDbArc
 50
134.9999999999999
 51
205.9685590748848
  0
LINE
  5
14A93
330
DE84
100
AcDbEntity
  8
0
100
AcDbLine
 10
46.01040764008567
 20
95.24264068711932
 30
0.0
 11
45.49623103493977
 21
94.72846408197346
 31
0.0
  0
CIRCLE
  5
14A94
330
DE84
100
AcDbEntity
  8
0
100
AcDbCircle
 10
45.12652416360251
 20
96.12652416360242
 30
0.0
 40
0.525
  0
ARC
  5
14A95
330
DE84
100
AcDbEntity
  8
0
100
AcDbCircle
 10
43.02135730078677
 20
97.20333781612636
 30
0.0
 40
1.0
100
AcDbArc
 50
244.0314409251152
 51
314.9999999999999
  0
CIRCLE
  5
14A96
330
DE84
100
AcDbEntity
  8
0
100
AcDbCircle
 10
48.37347583639749
 20
96.12652416360242
 30
0.0
 40
0.525
  0
ARC
  5
14A97
330
DE84
100
AcDbEntity
  8
0
100
AcDbCircle
 10
50.47864269921316
 20
97.20333781612636
 30
0.0
 40
1.0
100
AcDbArc
 50
225.0
 51
295.9685590748848
  0
LINE
  5
14A98
330
DE84
100
AcDbEntity
  8
0
100
AcDbLine
 10
47.48959235991432
 20
86.75735931288068
 30
0.0
 11
48.00376896506023
 21
87.27153591802652
 31
0.0
  0
CIRCLE
  5
14A99
330
DE84
100
AcDbEntity
  8
0
100
AcDbCircle
 10
48.37347583639749
 20
85.87347583639758
 30
0.0
 40
0.525
  0
ARC
  5
14A9A
330
DE84
100
AcDbEntity
  8
0
100
AcDbCircle
 10
50.47864269921316
 20
84.79666218387365
 30
0.0
 40
1.0
100
AcDbArc
 50
64.03144092511519
 51
134.9999999999999
  0
ARC
  5
14A9B
330
DE84
100
AcDbEntity
  8
0
100
AcDbCircle
 10
43.02135730078677
 20
84.79666218387365
 30
0.0
 40
1.0
100
AcDbArc
 50
45.00000000000006
 51
115.9685590748848
  0
CIRCLE
  5
14A9C
330
DE84
100
AcDbEntity
  8
0
100
AcDbCircle
 10
45.12652416360251
 20
85.87347583639758
 30
0.0
 40
0.525
  0
LINE
  5
14A9D
330
DE84
100
AcDbEntity
  8
0
100
AcDbLine
 10
46.01040764008567
 20
86.75735931288068
 30
0.0
 11
45.49623103493977
 21
87.27153591802652
 31
0.0
  0
ARC
  5
14A9E
330
DE84
100
AcDbEntity
  8
0
100
AcDbCircle
 10
46.46314775086821
 20
87.29456869575939
 30
0.0
 40
0.7000000000000001
100
AcDbArc
 50
150.17362750394
 51
225.0
  0
ARC
  5
14A9F
330
DE84
100
AcDbEntity
  8
0
100
AcDbCircle
 10
46.20333781612626
 20
87.97864269921319
 30
0.0
 40
1.0
100
AcDbArc
 50
154.0314409251152
 51
225.0
  0
ARC
  5
14AA0
330
DE84
100
AcDbEntity
  8
0
100
AcDbCircle
 10
47.03685224913178
 20
87.29456869575939
 30
0.0
 40
0.7000000000000001
100
AcDbArc
 50
314.9999999999999
 51
29.82637249605999
  0
ARC
  5
14AA1
330
DE84
100
AcDbEntity
  8
0
100
AcDbCircle
 10
47.29666218387373
 20
87.97864269921319
 30
0.0
 40
1.0
100
AcDbArc
 50
314.9999999999999
 51
25.96855907488477
  0
ARC
  5
14AA2
330
DE84
100
AcDbEntity
  8
0
100
AcDbCircle
 10
39.99999999999997
 20
91.0
 30
0.0
 40
6.75
100
AcDbArc
 50
330.17362750394
 51
29.82637249605999
  0
ARC
  5
14AA3
330
DE84
100
AcDbEntity
  8
0
100
AcDbCircle
 10
39.99999999999997
 20
91.0
 30
0.0
 40
5.9
100
AcDbArc
 50
334.0314409251152
 51
25.96855907488477
  0
ARC
  5
14AA4
330
DE84
100
AcDbEntity
  8
0
100
AcDbCircle
 10
53.49999999999997
 20
91.0
 30
0.0
 40
6.75
100
AcDbArc
 50
150.17362750394
 51
209.82637249606
  0
ARC
  5
14AA5
330
DE84
100
AcDbEntity
  8
0
100
AcDbCircle
 10
53.49999999999997
 20
91.0
 30
0.0
 40
5.9
100
AcDbArc
 50
154.0314409251152
 51
205.9685590748848
  0
LINE
  5
14AA6
330
DE84
100
AcDbEntity
  8
0
100
AcDbLine
 10
8.849999999999994
 20
107.0
 30
0.0
 11
9.749999999999971
 21
106.0999999999999
 31
0.0
  0
LINE
  5
14AA7
330
DE84
100
AcDbEntity
  8
0
100
AcDbLine
 10
6.849999999999994
 20
107.0
 30
0.0
 11
8.849999999999994
 21
107.0
 31
0.0
  0
LINE
  5
14AA8
330
DE84
100
AcDbEntity
  8
0
100
AcDbLine
 10
5.950000000000017
 20
106.0999999999999
 30
0.0
 11
6.849999999999994
 21
107.0
 31
0.0
  0
ARC
  5
14AA9
330
DE84
100
AcDbEntity
  8
0
100
AcDbCircle
 10
17.79999999999998
 20
100.7
 30
0.0
 40
0.3
100
AcDbArc
 50
90.0
 51
180.0
  0
ARC
  5
14AAA
330
DE84
100
AcDbEntity
  8
0
100
AcDbCircle
 10
7.849999999999994
 20
103.5
 30
0.0
 40
0.7000000000000001
100
AcDbArc
 50
180.0
 51
0.0
  0
LINE
  5
14AAB
330
DE84
100
AcDbEntity
  8
0
100
AcDbLine
 10
7.150000000000005
 20
104.5
 30
0.0
 11
7.150000000000005
 21
103.5
 31
0.0
  0
LINE
  5
14AAC
330
DE84
100
AcDbEntity
  8
0
100
AcDbLine
 10
8.549999999999982
 20
104.5
 30
0.0
 11
8.549999999999982
 21
103.5
 31
0.0
  0
ARC
  5
14AAF
330
DE84
100
AcDbEntity
  8
0
100
AcDbCircle
 10
7.849999999999994
 20
104.5
 30
0.0
 40
0.7000000000000001
100
AcDbArc
 50
0.0
 51
180.0
  0
ARC
  5
14AB0
330
DE84
100
AcDbEntity
  8
0
100
AcDbCircle
 10
16.99999999999997
 20
99.87386354243358
 30
0.0
 40
0.5
100
AcDbArc
 50
270.0
 51
0.0
  0
ARC
  5
14AB1
330
DE84
100
AcDbEntity
  8
0
100
AcDbCircle
 10
16.99999999999997
 20
99.50000000000001
 30
0.0
 40
0.5
100
AcDbArc
 50
90.0
 51
180.0
  0
LINE
  5
14AB2
330
DE84
100
AcDbEntity
  8
0
100
AcDbLine
 10
17.49999999999997
 20
100.7
 30
0.0
 11
17.50000000000008
 21
99.87386354243358
 31
0.0
  0
ARC
  5
14AB3
330
DE84
100
AcDbEntity
  8
0
100
AcDbCircle
 10
16.99999999999997
 20
100.5
 30
0.0
 40
0.5
100
AcDbArc
 50
270.0
 51
0.0
  0
ARC
  5
14AB4
330
DE84
100
AcDbEntity
  8
0
100
AcDbCircle
 10
39.99999999999997
 20
91.0
 30
0.0
 40
6.75
100
AcDbArc
 50
60.17362750393996
 51
119.82637249606
  0
ARC
  5
14AB5
330
DE84
100
AcDbEntity
  8
0
100
AcDbCircle
 10
26.49999999999997
 20
91.0
 30
0.0
 40
6.75
100
AcDbArc
 50
60.17362750393996
 51
119.82637249606
  0
LINE
  5
14AB6
330
DE84
100
AcDbEntity
  8
0
100
AcDbLine
 10
70.24999999999997
 20
106.0999999999999
 30
0.0
 11
70.24999999999997
 21
92.90000000000009
 31
0.0
  0
ARC
  5
14AB7
330
DE84
100
AcDbEntity
  8
0
100
AcDbCircle
 10
13.99999999999997
 20
91.0
 30
0.0
 40
50.0
100
AcDbArc
 50
351.8903855440038
 51
8.109614455995984
  0
LINE
  5
14AB8
330
DE84
100
AcDbEntity
  8
0
100
AcDbLine
 10
63.49999999999997
 20
99.50000000000001
 30
0.0
 11
63.49999999999997
 21
82.5
 31
0.0
  0
ARC
  5
14AB9
330
DE84
100
AcDbEntity
  8
0
100
AcDbCircle
 10
57.20543130424065
 20
97.4631477508683
 30
0.0
 40
0.7000000000000001
100
AcDbArc
 50
240.1736275039399
 51
314.9999999999999
  0
LINE
  5
14ABA
330
DE84
100
AcDbEntity
  8
0
100
AcDbLine
 10
57.74264068711929
 20
97.01040764008576
 30
0.0
 11
57.22846408197338
 21
96.49623103493969
 31
0.0
  0
ARC
  5
14ABB
330
DE84
100
AcDbEntity
  8
0
100
AcDbCircle
 10
58.62652416360251
 20
96.12652416360242
 30
0.0
 40
1.25
100
AcDbArc
 50
314.9999999999999
 51
134.9999999999999
  0
CIRCLE
  5
14ABE
330
DE84
100
AcDbEntity
  8
0
100
AcDbCircle
 10
58.62652416360251
 20
96.12652416360242
 30
0.0
 40
0.9
  0
LINE
  5
14AC0
330
DE84
100
AcDbEntity
  8
0
100
AcDbLine
 10
70.24999999999997
 20
89.09999999999991
 30
0.0
 11
70.24999999999997
 21
77.42582327212244
 31
0.0
  0
ARC
  5
14AC1
330
DE84
100
AcDbEntity
  8
0
100
AcDbCircle
 10
57.20543130424065
 20
84.5368522491317
 30
0.0
 40
0.7000000000000001
100
AcDbArc
 50
45.00000000000006
 51
119.82637249606
  0
LINE
  5
14AC2
330
DE84
100
AcDbEntity
  8
0
100
AcDbLine
 10
57.74264068711929
 20
84.98959235991424
 30
0.0
 11
57.22846408197327
 21
85.50376896506032
 31
0.0
  0
ARC
  5
14AC3
330
DE84
100
AcDbEntity
  8
0
100
AcDbCircle
 10
58.62652416360251
 20
85.87347583639758
 30
0.0
 40
1.25
100
AcDbArc
 50
225.0
 51
45.00000000000006
  0
CIRCLE
  5
14AC6
330
DE84
100
AcDbEntity
  8
0
100
AcDbCircle
 10
58.62652416360251
 20
85.87347583639758
 30
0.0
 40
0.9
  0
ARC
  5
14AC7
330
DE84
100
AcDbEntity
  8
0
100
AcDbCircle
 10
69.49999999999997
 20
79.25
 30
0.0
 40
0.5
100
AcDbArc
 50
0.0
 51
90.0
  0
CIRCLE
  5
14AC8
330
DE84
100
AcDbEntity
  8
0
100
AcDbCircle
 10
66.27297077300918
 20
78.02297077300909
 30
0.0
 40
0.525
  0
CIRCLE
  5
14AC9
330
DE84
100
AcDbEntity
  8
0
100
AcDbCircle
 10
66.27296999999995
 20
78.02296999999999
 30
0.0
 40
0.9
  0
CIRCLE
  5
14ACC
330
DE84
100
AcDbEntity
  8
0
100
AcDbCircle
 10
66.27296999999995
 20
78.02296999999999
 30
0.0
 40
1.25
  0
ARC
  5
14ACD
330
DE84
100
AcDbEntity
  8
0
100
AcDbCircle
 10
60.99999999999997
 20
76.25
 30
0.0
 40
1.1
100
AcDbArc
 50
300.0796000000323
 51
346.8633999999862
  0
ARC
  5
14ACE
330
DE84
100
AcDbEntity
  8
0
100
AcDbCircle
 10
60.99999999999997
 20
76.25
 30
0.0
 40
0.9
100
AcDbArc
 50
289.6857000000051
 51
343.8724000000141
  0
ARC
  5
14ACF
330
DE84
100
AcDbEntity
  8
0
100
AcDbCircle
 10
59.64788999999999
 20
75.39454999999998
 30
0.0
 40
0.7000000000000001
100
AcDbArc
 50
341.0031999999744
 51
32.3205900000274
  0
ARC
  5
14AD0
330
DE84
100
AcDbEntity
  8
0
100
AcDbCircle
 10
59.42298000000002
 20
75.61518999999998
 30
0.0
 40
0.6000000000000001
100
AcDbArc
 50
344.6062999999583
 51
21.92661000003019
  0
ARC
  5
14AD1
330
DE84
100
AcDbEntity
  8
0
100
AcDbCircle
 10
60.99999999999997
 20
76.25
 30
0.0
 40
1.1
100
AcDbArc
 50
193.1369000000023
 51
201.9265999999987
  0
ARC
  5
14AD2
330
DE84
100
AcDbEntity
  8
0
100
AcDbCircle
 10
60.99999999999997
 20
76.25
 30
0.0
 40
0.9
100
AcDbArc
 50
196.1279999999981
 51
212.3205999999848
  0
ARC
  5
14AD3
330
DE84
100
AcDbEntity
  8
0
100
AcDbCircle
 10
61.85203999999996
 20
74.77893999999992
 30
0.0
 40
0.6000000000000001
100
AcDbArc
 50
120.0796000000322
 51
157.4000000000218
  0
ARC
  5
14AD4
330
DE84
100
AcDbEntity
  8
0
100
AcDbCircle
 10
61.53896999999997
 20
74.74351999999999
 30
0.0
 40
0.7000000000000001
100
AcDbArc
 50
109.685599999985
 51
161.0031000000165
  0
CIRCLE
  5
14AD5
330
DE84
100
AcDbEntity
  8
0
100
AcDbCircle
 10
56.72702999999998
 20
78.02296999999999
 30
0.0
 40
0.9
  0
CIRCLE
  5
14AD6
330
DE84
100
AcDbEntity
  8
0
100
AcDbCircle
 10
56.72703172698764
 20
78.02297327300471
 30
0.0
 40
0.525
  0
CIRCLE
  5
14AD9
330
DE84
100
AcDbEntity
  8
0
100
AcDbCircle
 10
56.72702999999998
 20
78.02296999999999
 30
0.0
 40
1.25
  0
ARC
  5
14ADA
330
DE84
100
AcDbEntity
  8
0
100
AcDbCircle
 10
61.49999999999997
 20
73.25
 30
0.0
 40
6.4
100
AcDbArc
 50
55.47531748500875
 51
124.5246825149912
  0
LWPOLYLINE
  5
14ADB
330
DE84
100
AcDbEntity
  8
0
100
AcDbPolyline
 90
        8
 70
     1
 43
0.0
 10
58.70000000000008
 20
76.0
 10
63.30000000000009
 20
76.0
 42
0.4142135623730951
 10
63.50000000000008
 20
76.20000000000004
 10
63.50000000000008
 20
78.30000000000018
 42
0.4142135623730895
 10
63.30000000000009
 20
78.5
 10
58.70000000000008
 20
78.50000000000022
 42
0.4142135623730951
 10
58.50000000000008
 20
78.30000000000018
 10
58.50000000000003
 20
76.20000000000004
 42
0.4142135623730951
  0
LINE
  5
14ADC
330
DE84
100
AcDbEntity
  8
0
100
AcDbLine
 10
69.49999999999997
 20
79.75
 30
0.0
 11
54.90000000000001
 21
79.75
 31
0.0
  0
ARC
  5
14ADD
330
DE84
100
AcDbEntity
  8
0
100
AcDbCircle
 10
62.99999999999997
 20
82.5
 30
0.0
 40
0.5
100
AcDbArc
 50
270.0
 51
0.0
  0
LINE
  5
14ADE
330
DE84
100
AcDbEntity
  8
0
100
AcDbLine
 10
73.34999999999999
 20
75.15000000000009
 30
0.0
 11
70.84862861262852
 21
75.15000000000009
 31
0.0
  0
LINE
  5
14ADF
330
DE84
100
AcDbEntity
  8
0
100
AcDbLine
 10
63.96388695848234
 20
92.90000000000009
 30
0.0
 11
73.95000000000002
 21
92.90000000000009
 31
0.0
  0
LINE
  5
14AE0
330
DE84
100
AcDbEntity
  8
0
100
AcDbLine
 10
63.96388695848234
 20
89.09999999999991
 30
0.0
 11
73.95000000000002
 21
89.09999999999991
 31
0.0
  0
ARC
  5
14AE1
330
DE84
100
AcDbEntity
  8
0
100
AcDbCircle
 10
59.96314775086822
 20
94.70543130424061
 30
0.0
 40
0.7000000000000001
100
AcDbArc
 50
134.9999999999999
 51
209.82637249606
  0
LINE
  5
14AE2
330
DE84
100
AcDbEntity
  8
0
100
AcDbLine
 10
59.51040764008567
 20
95.24264068711932
 30
0.0
 11
58.99623103493977
 21
94.72846408197346
 31
0.0
  0
ARC
  5
14AE3
330
DE84
100
AcDbEntity
  8
0
100
AcDbCircle
 10
59.70333781612627
 20
94.02135730078681
 30
0.0
 40
1.0
100
AcDbArc
 50
134.9999999999999
 51
205.9685590748848
  0
ARC
  5
14AE4
330
DE84
100
AcDbEntity
  8
0
100
AcDbCircle
 10
56.52135730078677
 20
97.20333781612636
 30
0.0
 40
1.0
100
AcDbArc
 50
244.0314409251152
 51
314.9999999999999
  0
CIRCLE
  5
14AE5
330
DE84
100
AcDbEntity
  8
0
100
AcDbCircle
 10
58.62652416360251
 20
96.12652416360242
 30
0.0
 40
0.525
  0
LINE
  5
14AE6
330
DE84
100
AcDbEntity
  8
0
100
AcDbLine
 10
59.51040764008567
 20
86.75735931288068
 30
0.0
 11
58.99623103493977
 21
87.27153591802652
 31
0.0
  0
CIRCLE
  5
14AE7
330
DE84
100
AcDbEntity
  8
0
100
AcDbCircle
 10
58.62652416360251
 20
85.87347583639758
 30
0.0
 40
0.525
  0
ARC
  5
14AE8
330
DE84
100
AcDbEntity
  8
0
100
AcDbCircle
 10
56.52135730078677
 20
84.79666218387365
 30
0.0
 40
1.0
100
AcDbArc
 50
45.00000000000006
 51
115.9685590748848
  0
ARC
  5
14AE9
330
DE84
100
AcDbEntity
  8
0
100
AcDbCircle
 10
59.96314775086822
 20
87.29456869575939
 30
0.0
 40
0.7000000000000001
100
AcDbArc
 50
150.17362750394
 51
225.0
  0
ARC
  5
14AEA
330
DE84
100
AcDbEntity
  8
0
100
AcDbCircle
 10
59.70333781612627
 20
87.97864269921319
 30
0.0
 40
1.0
100
AcDbArc
 50
154.0314409251152
 51
225.0
  0
ARC
  5
14AEB
330
DE84
100
AcDbEntity
  8
0
100
AcDbCircle
 10
53.49999999999997
 20
91.0
 30
0.0
 40
6.75
100
AcDbArc
 50
330.17362750394
 51
29.82637249605999
  0
ARC
  5
14AEC
330
DE84
100
AcDbEntity
  8
0
100
AcDbCircle
 10
53.49999999999997
 20
91.0
 30
0.0
 40
5.9
100
AcDbArc
 50
334.0314409251152
 51
25.96855907488477
  0
CIRCLE
  5
14AEE
330
DE84
100
AcDbEntity
  8
0
100
AcDbCircle
 10
72.15
 20
91.0
 30
0.0
 40
0.65
  0
LINE
  5
14AF0
330
DE84
100
AcDbEntity
  8
0
100
AcDbLine
 10
73.95000000000002
 20
89.09999999999991
 30
0.0
 11
73.95000000000002
 21
92.90000000000009
 31
0.0
  0
ARC
  5
14AF1
330
DE84
100
AcDbEntity
  8
0
100
AcDbCircle
 10
62.20000000000002
 20
100.7
 30
0.0
 40
0.3
100
AcDbArc
 50
0.0
 51
90.0
  0
ARC
  5
14AF2
330
DE84
100
AcDbEntity
  8
0
100
AcDbCircle
 10
62.99999999999997
 20
99.87386354243382
 30
0.0
 40
0.5
100
AcDbArc
 50
180.0
 51
270.0
  0
ARC
  5
14AF3
330
DE84
100
AcDbEntity
  8
0
100
AcDbCircle
 10
62.99999999999997
 20
99.50000000000001
 30
0.0
 40
0.5
100
AcDbArc
 50
0.0
 51
90.0
  0
LINE
  5
14AF4
330
DE84
100
AcDbEntity
  8
0
100
AcDbLine
 10
62.49999999999997
 20
100.7
 30
0.0
 11
62.49999999999997
 21
99.87386354243382
 31
0.0
  0
ARC
  5
14AF5
330
DE84
100
AcDbEntity
  8
0
100
AcDbCircle
 10
62.99999999999997
 20
100.5
 30
0.0
 40
0.5
100
AcDbArc
 50
180.0
 51
270.0
  0
LINE
  5
14AF6
330
DE84
100
AcDbEntity
  8
0
100
AcDbLine
 10
73.15000000000001
 20
107.0
 30
0.0
 11
74.04999999999998
 21
106.0999999999999
 31
0.0
  0
LINE
  5
14AF7
330
DE84
100
AcDbEntity
  8
0
100
AcDbLine
 10
70.24999999999997
 20
106.0999999999999
 30
0.0
 11
71.15000000000001
 21
107.0
 31
0.0
  0
LINE
  5
14AF8
330
DE84
100
AcDbEntity
  8
0
100
AcDbLine
 10
71.15000000000001
 20
107.0
 30
0.0
 11
73.15000000000001
 21
107.0
 31
0.0
  0
LINE
  5
14AF9
330
DE84
100
AcDbEntity
  8
0
100
AcDbLine
 10
72.85
 20
104.5
 30
0.0
 11
72.85
 21
103.5
 31
0.0
  0
LINE
  5
14AFA
330
DE84
100
AcDbEntity
  8
0
100
AcDbLine
 10
71.45000000000002
 20
104.5
 30
0.0
 11
71.45000000000002
 21
103.5
 31
0.0
  0
ARC
  5
14AFB
330
DE84
100
AcDbEntity
  8
0
100
AcDbCircle
 10
72.15
 20
103.5
 30
0.0
 40
0.7000000000000001
100
AcDbArc
 50
180.0
 51
0.0
  0
ARC
  5
14AFE
330
DE84
100
AcDbEntity
  8
0
100
AcDbCircle
 10
72.15
 20
104.5
 30
0.0
 40
0.7000000000000001
100
AcDbArc
 50
0.0
 51
180.0
  0
TEXT
  5
179D8
330
DE84
100
AcDbEntity
  8
0
100
AcDbText
 10
23.25000000000001
 20
7.275000000000005
 30
0.0
 40
3.149999999999999
  1
EXP6104
100
AcDbText
  0
TEXT
  5
179D9
330
DE84
100
AcDbEntity
  8
0
100
AcDbText
 10
23.25000000000001
 20
12.0
 30
0.0
 40
3.149999999999999
  1
分電盤／単式　４回路
100
AcDbText
  0
ENDSEC
  0
SECTION
  2
OBJECTS
  0
DICTIONARY
  5
DE72
330
0
100
AcDbDictionary
281
     1
  3
ACAD_CIP_PREVIOUS_PRODUCT_INFO
350
179D5
  3
ACAD_COLOR
350
179C8
  3
ACAD_DETAILVIEWSTYLE
350
179D1
  3
ACAD_GROUP
350
DE73
  3
ACAD_LAYOUT
350
DE7F
  3
ACAD_MATERIAL
350
17996
  3
ACAD_MLEADERSTYLE
350
179CD
  3
ACAD_MLINESTYLE
350
DE7C
  3
ACAD_PLOTSETTINGS
350
DE7E
  3
ACAD_PLOTSTYLENAME
350
DE74
  3
ACAD_SCALELIST
350
179CB
  3
ACAD_SECTIONVIEWSTYLE
350
179CF
  3
ACAD_TABLESTYLE
350
179C9
  3
ACAD_VISUALSTYLE
350
179AF
  3
ACDB_RECOMPOSE_DATA
350
179FF
  3
AcDbVariableDictionary
350
179F3
  0
DICTIONARY
  5
179E6
330
DE76
100
AcDbDictionary
280
     1
281
     1
  3
ADSK_XREC_LAYER_RECONCILED
360
179E7
  0
DICTIONARY
  5
DEA8
330
DE84
100
AcDbDictionary
280
     1
281
     1
  3
ACAD_LAYOUTSELFREF
360
DEDC
  0
XRECORD
  5
179D5
102
{ACAD_REACTORS
330
DE72
102
}
330
DE72
100
AcDbXrecord
280
     1
300
ACDLT
300
2018
300

  0
DICTIONARY
  5
179C8
102
{ACAD_REACTORS
330
DE72
102
}
330
DE72
100
AcDbDictionary
281
     1
  0
DICTIONARY
  5
179D1
102
{ACAD_REACTORS
330
DE72
102
}
330
DE72
100
AcDbDictionary
281
     1
  3
Imperial24
350
179D2
  0
DICTIONARY
  5
DE73
102
{ACAD_REACTORS
330
DE72
102
}
330
DE72
100
AcDbDictionary
281
     1
  0
DICTIONARY
  5
DE7F
102
{ACAD_REACTORS
330
DE72
102
}
330
DE72
100
AcDbDictionary
281
     1
  3
Model
350
DE87
  3
レイアウト1
350
179E2
  0
DICTIONARY
  5
17996
102
{ACAD_REACTORS
330
DE72
102
}
330
DE72
100
AcDbDictionary
281
     1
  3
ByBlock
350
1799F
  3
ByLayer
350
17997
  3
Global
350
179A7
  0
DICTIONARY
  5
179CD
102
{ACAD_REACTORS
330
DE72
102
}
330
DE72
100
AcDbDictionary
281
     1
  3
Standard
350
179CE
  0
DICTIONARY
  5
DE7C
102
{ACAD_REACTORS
330
DE72
102
}
330
DE72
100
AcDbDictionary
281
     1
  3
Standard
350
DE7D
  0
DICTIONARY
  5
DE7E
102
{ACAD_REACTORS
330
DE72
102
}
330
DE72
100
AcDbDictionary
281
     1
  0
ACDBDICTIONARYWDFLT
  5
DE74
102
{ACAD_REACTORS
330
DE72
102
}
330
DE72
100
AcDbDictionary
281
     1
  3
Normal
350
DE75
100
AcDbDictionaryWithDefault
340
DE75
  0
DICTIONARY
  5
179CB
102
{ACAD_REACTORS
330
DE72
102
}
330
DE72
100
AcDbDictionary
281
     1
  3
A0
350
179CC
  0
DICTIONARY
  5
179CF
102
{ACAD_REACTORS
330
DE72
102
}
330
DE72
100
AcDbDictionary
281
     1
  3
Imperial24
350
179D0
  0
DICTIONARY
  5
179C9
102
{ACAD_REACTORS
330
DE72
102
}
330
DE72
100
AcDbDictionary
281
     1
  3
Standard
350
179CA
  0
DICTIONARY
  5
179AF
102
{ACAD_REACTORS
330
DE72
102
}
330
DE72
100
AcDbDictionary
281
     1
  3
2dWireframe
350
179B5
  3
Basic
350
179B4
  3
Brighten
350
179BB
  3
ColorChange
350
179BF
  3
Conceptual
350
179B8
  3
Dim
350
179BA
  3
EdgeColorOff
350
179C7
  3
Facepattern
350
179BE
  3
Flat
350
179B0
  3
FlatWithEdges
350
179B1
  3
Gouraud
350
179B2
  3
GouraudWithEdges
350
179B3
  3
Hidden
350
179B7
  3
JitterOff
350
179C5
  3
Linepattern
350
179BD
  3
OverhangOff
350
179C6
  3
Realistic
350
179B9
  3
Shaded
350
179C4
  3
Shaded with edges
350
179C3
  3
Shades of Gray
350
179C0
  3
Sketchy
350
179C1
  3
Thicken
350
179BC
  3
Wireframe
350
179B6
  3
X-Ray
350
179C2
  0
XRECORD
  5
179FF
102
{ACAD_REACTORS
330
DE72
102
}
330
DE72
100
AcDbXrecord
280
     1
 90
        1
330
179CA
  0
DICTIONARY
  5
179F3
102
{ACAD_REACTORS
330
DE72
102
}
330
DE72
100
AcDbDictionary
281
     1
  3
CANNOSCALE
350
179F9
  3
CMLEADERSTYLE
350
179F5
  3
CTABLESTYLE
350
179F4
  3
CVIEWDETAILSTYLE
350
179F6
  3
CVIEWSECTIONSTYLE
350
179F7
  3
LAYEREVAL
350
179FB
  3
LAYERNOTIFY
350
179FC
  3
LIGHTINGUNITS
350
179FA
  3
MSLTSCALE
350
179F8
  0
XRECORD
  5
179E7
102
{ACAD_REACTORS
330
179E6
102
}
330
179E6
100
AcDbXrecord
280
     1
290
     1
  0
XRECORD
  5
DEDC
102
{ACAD_REACTORS
330
DEA8
102
}
330
DEA8
100
AcDbXrecord
280
     1
340
DE84
  0
ACDBDETAILVIEWSTYLE
  5
179D2
102
{ACAD_XDICTIONARY
360
17A34
102
}
102
{ACAD_REACTORS
330
179D1
102
}
330
179D1
100
AcDbModelDocViewStyle
 70
     0
  3
Imperial24
290
     0
100
AcDbDetailViewStyle
 70
     0
 71
     0
 90
        3
 71
     1
340
DE77
 62
   256
 40
0.24
340
0
 62
   256
 40
0.24
300

 40
0.36
280
     3
 71
     2
340
DE7B
 90
       25
 62
   256
 71
     3
340
DE77
 62
   256
 40
0.24
 90
        1
 40
0.75
 90
        1
300
%<\AcVar ViewType \f "%tc1">% %<\AcVar ViewDetailId>%\PSCALE %<\AcVar ViewScale \f "%sn">%
 71
     4
340
DE7B
 90
       25
 62
   256
340
DE7B
 90
       25
 62
   256
280
     0
  0
LAYOUT
  5
DE87
102
{ACAD_REACTORS
330
DE7F
102
}
330
DE7F
100
AcDbPlotSettings
  1

  2
FUJITSU XL-5320
  4

  6

 40
0.0
 41
0.0
 42
0.0
 43
0.0
 44
0.0
 45
0.0
 46
0.0
 47
0.0
 48
0.0
 49
0.0
140
0.0
141
0.0
142
1.0
143
1.0
 70
  1712
 72
     0
 73
     0
 74
     0
  7
XL-5320.ctb
 75
     0
147
1.0
 76
     0
 77
     2
 78
   300
148
0.0
149
0.0
100
AcDbLayout
  1
Model
 70
     1
 71
     0
 10
0.0
 20
0.0
 11
12.0
 21
9.0
 12
0.0
 22
0.0
 32
0.0
 14
0.0
 24
0.0
 34
0.0
 15
0.0
 25
0.0
 35
0.0
146
0.0
 13
0.0
 23
0.0
 33
0.0
 16
1.0
 26
0.0
 36
0.0
 17
0.0
 27
1.0
 37
0.0
 76
     0
330
DE84
331
17994
  0
LAYOUT
  5
179E2
102
{ACAD_REACTORS
330
DE7F
102
}
330
DE7F
100
AcDbPlotSettings
  1

  2
DocuCentreIV C3375
  4

  6

 40
0.0
 41
0.0
 42
0.0
 43
0.0
 44
0.0
 45
0.0
 46
0.0
 47
0.0
 48
0.0
 49
0.0
140
0.0
141
0.0
142
1.0
143
1.0
 70
   688
 72
     0
 73
     0
 74
     5
  7

 75
    16
147
1.0
 76
     0
 77
     2
 78
   300
148
0.0
149
0.0
100
AcDbLayout
  1
レイアウト1
 70
     1
 71
     1
 10
0.0
 20
0.0
 11
12.0
 21
9.0
 12
0.0
 22
0.0
 32
0.0
 14
0.0
 24
0.0
 34
0.0
 15
0.0
 25
0.0
 35
0.0
146
0.0
 13
0.0
 23
0.0
 33
0.0
 16
1.0
 26
0.0
 36
0.0
 17
0.0
 27
1.0
 37
0.0
 76
     0
330
179E1
  0
MATERIAL
  5
1799F
102
{ACAD_XDICTIONARY
360
179A0
102
}
102
{ACAD_REACTORS
330
17996
102
}
330
17996
100
AcDbMaterial
  1
ByBlock
 72
     0
 43
0.0208333333333333
 43
0.0
 43
0.0
 43
0.0
 43
0.0
 43
0.0208333333333333
 43
0.0
 43
0.0
 43
0.0
 43
0.0
 43
1.0
 43
0.0
 43
0.0
 43
0.0
 43
0.0
 43
1.0
 77
     0
 47
0.0208333333333333
 47
0.0
 47
0.0
 47
0.0
 47
0.0
 47
0.0208333333333333
 47
0.0
 47
0.0
 47
0.0
 47
0.0
 47
1.0
 47
0.0
 47
0.0
 47
0.0
 47
0.0
 47
1.0
171
     0
 49
0.0208333333333333
 49
0.0
 49
0.0
 49
0.0
 49
0.0
 49
0.0208333333333333
 49
0.0
 49
0.0
 49
0.0
 49
0.0
 49
1.0
 49
0.0
 49
0.0
 49
0.0
 49
0.0
 49
1.0
175
     0
142
0.0208333333333333
142
0.0
142
0.0
142
0.0
142
0.0
142
0.0208333333333333
142
0.0
142
0.0
142
0.0
142
0.0
142
1.0
142
0.0
142
0.0
142
0.0
142
0.0
142
1.0
179
     0
144
0.0208333333333333
144
0.0
144
0.0
144
0.0
144
0.0
144
0.0208333333333333
144
0.0
144
0.0
144
0.0
144
0.0
144
1.0
144
0.0
144
0.0
144
0.0
144
0.0
144
1.0
147
0.0208333333333333
147
0.0
147
0.0
147
0.0
147
0.0
147
0.0208333333333333
147
0.0
147
0.0
147
0.0
147
0.0
147
1.0
147
0.0
147
0.0
147
0.0
147
0.0
147
1.0
  0
MATERIAL
  5
17997
102
{ACAD_XDICTIONARY
360
17998
102
}
102
{ACAD_REACTORS
330
17996
102
}
330
17996
100
AcDbMaterial
  1
ByLayer
 72
     0
 43
0.0208333333333333
 43
0.0
 43
0.0
 43
0.0
 43
0.0
 43
0.0208333333333333
 43
0.0
 43
0.0
 43
0.0
 43
0.0
 43
1.0
 43
0.0
 43
0.0
 43
0.0
 43
0.0
 43
1.0
 77
     0
 47
0.0208333333333333
 47
0.0
 47
0.0
 47
0.0
 47
0.0
 47
0.0208333333333333
 47
0.0
 47
0.0
 47
0.0
 47
0.0
 47
1.0
 47
0.0
 47
0.0
 47
0.0
 47
0.0
 47
1.0
171
     0
 49
0.0208333333333333
 49
0.0
 49
0.0
 49
0.0
 49
0.0
 49
0.0208333333333333
 49
0.0
 49
0.0
 49
0.0
 49
0.0
 49
1.0
 49
0.0
 49
0.0
 49
0.0
 49
0.0
 49
1.0
175
     0
142
0.0208333333333333
142
0.0
142
0.0
142
0.0
142
0.0
142
0.0208333333333333
142
0.0
142
0.0
142
0.0
142
0.0
142
1.0
142
0.0
142
0.0
142
0.0
142
0.0
142
1.0
179
     0
144
0.0208333333333333
144
0.0
144
0.0
144
0.0
144
0.0
144
0.0208333333333333
144
0.0
144
0.0
144
0.0
144
0.0
144
1.0
144
0.0
144
0.0
144
0.0
144
0.0
144
1.0
147
0.0208333333333333
147
0.0
147
0.0
147
0.0
147
0.0
147
0.0208333333333333
147
0.0
147
0.0
147
0.0
147
0.0
147
1.0
147
0.0
147
0.0
147
0.0
147
0.0
147
1.0
  0
MATERIAL
  5
179A7
102
{ACAD_XDICTIONARY
360
179A8
102
}
102
{ACAD_REACTORS
330
17996
102
}
330
17996
100
AcDbMaterial
  1
Global
 72
     0
 43
0.0208333333333333
 43
0.0
 43
0.0
 43
0.0
 43
0.0
 43
0.0208333333333333
 43
0.0
 43
0.0
 43
0.0
 43
0.0
 43
1.0
 43
0.0
 43
0.0
 43
0.0
 43
0.0
 43
1.0
 77
     0
 47
0.0208333333333333
 47
0.0
 47
0.0
 47
0.0
 47
0.0
 47
0.0208333333333333
 47
0.0
 47
0.0
 47
0.0
 47
0.0
 47
1.0
 47
0.0
 47
0.0
 47
0.0
 47
0.0
 47
1.0
171
     0
 49
0.0208333333333333
 49
0.0
 49
0.0
 49
0.0
 49
0.0
 49
0.0208333333333333
 49
0.0
 49
0.0
 49
0.0
 49
0.0
 49
1.0
 49
0.0
 49
0.0
 49
0.0
 49
0.0
 49
1.0
175
     0
142
0.0208333333333333
142
0.0
142
0.0
142
0.0
142
0.0
142
0.0208333333333333
142
0.0
142
0.0
142
0.0
142
0.0
142
1.0
142
0.0
142
0.0
142
0.0
142
0.0
142
1.0
179
     0
144
0.0208333333333333
144
0.0
144
0.0
144
0.0
144
0.0
144
0.0208333333333333
144
0.0
144
0.0
144
0.0
144
0.0
144
1.0
144
0.0
144
0.0
144
0.0
144
0.0
144
1.0
147
0.0208333333333333
147
0.0
147
0.0
147
0.0
147
0.0
147
0.0208333333333333
147
0.0
147
0.0
147
0.0
147
0.0
147
1.0
147
0.0
147
0.0
147
0.0
147
0.0
147
1.0
  0
MLEADERSTYLE
  5
179CE
102
{ACAD_XDICTIONARY
360
17A30
102
}
102
{ACAD_REACTORS
330
179CD
102
}
330
179CD
100
AcDbMLeaderStyle
179
     2
170
     2
171
     1
172
     0
 90
        2
 40
0.0
 41
0.0
173
     1
 91
-1056964608
340
DE79
 92
       -2
290
     1
 42
0.09
291
     1
 43
0.36
  3
Standard
 44
0.18
300

342
DE77
174
     1
178
     6
175
     1
176
     0
 93
-1056964608
 45
0.18
292
     0
297
     0
 46
0.18
 94
-1056964608
 47
1.0
 49
1.0
140
1.0
293
     1
141
0.0
294
     1
177
     0
142
1.0
295
     0
296
     0
143
0.125
271
     0
272
     9
273
     9
  0
MLINESTYLE
  5
DE7D
102
{ACAD_REACTORS
330
DE7C
102
}
330
DE7C
100
AcDbMlineStyle
  2
STANDARD
 70
     0
  3

 62
   256
 51
90.0
 52
90.0
 71
     2
 49
0.5
 62
   256
  6
BYLAYER
 49
-0.5
 62
   256
  6
BYLAYER
  0
ACDBPLACEHOLDER
  5
DE75
102
{ACAD_REACTORS
330
DE74
102
}
330
DE74
  0
SCALE
  5
179CC
102
{ACAD_REACTORS
330
179CB
102
}
330
179CB
100
AcDbScale
 70
     0
300
1:1
140
1.0
141
1.0
290
     1
  0
ACDBSECTIONVIEWSTYLE
  5
179D0
102
{ACAD_XDICTIONARY
360
17A32
102
}
102
{ACAD_REACTORS
330
179CF
102
}
330
179CF
100
AcDbModelDocViewStyle
 70
     0
  3
Imperial24
290
     0
100
AcDbSectionViewStyle
 70
     0
 71
     0
 90
       78
 71
     1
340
DE77
 62
   256
 40
0.24
340
0
340
0
 62
   256
 40
0.24
300
I, O, Q, S, X, Z
 40
0.48
 90
        3
 40
0.18
 90
        1
 71
     2
340
DE7B
 90
       25
 62
   256
340
DE7B
 90
       50
 62
   256
 40
0.24
 40
0.0
 40
0.24
 71
     3
340
DE77
 62
   256
 40
0.24
 90
        1
 40
0.75
 90
        1
300
%<\AcVar ViewType \f "%tc1">% %<\AcVar ViewSectionStartId>%-%<\AcVar ViewSectionEndId>%\PSCALE %<\AcVar ViewScale \f "%sn">%
 71
     4
 62
   256
 62
   257
300
ANSI31
 40
1.0
 90
        0
290
     0
290
     0
 90
        6
 40
0.0
 40
1.570796326794896
 40
0.2617993877991494
 40
1.308996938995747
 40
-0.2617993877991494
 40
1.832595714594046
  0
TABLESTYLE
  5
179CA
102
{ACAD_XDICTIONARY
360
179FD
102
}
102
{ACAD_REACTORS
330
179C9
102
}
330
179C9
100
AcDbTableStyle
280
     0
  3
Standard
 70
     0
 71
     0
 40
0.06
 41
0.06
280
     0
281
     0
  7
STANDARD
140
0.18
170
     2
 62
     0
 63
     7
283
     0
 90
      512
 91
        0
  1

274
    -2
284
     1
 64
     0
275
    -2
285
     1
 65
     0
276
    -2
286
     1
 66
     0
277
    -2
287
     1
 67
     0
278
    -2
288
     1
 68
     0
279
    -2
289
     1
 69
     0
  7
STANDARD
140
0.25
170
     5
 62
     0
 63
     7
283
     0
 90
      512
 91
        0
  1

274
    -2
284
     1
 64
     0
275
    -2
285
     1
 65
     0
276
    -2
286
     1
 66
     0
277
    -2
287
     1
 67
     0
278
    -2
288
     1
 68
     0
279
    -2
289
     1
 69
     0
  7
STANDARD
140
0.18
170
     5
 62
     0
 63
     7
283
     0
 90
      512
 91
        0
  1

274
    -2
284
     1
 64
     0
275
    -2
285
     1
 65
     0
276
    -2
286
     1
 66
     0
277
    -2
287
     1
 67
     0
278
    -2
288
     1
 68
     0
279
    -2
289
     1
 69
     0
  0
VISUALSTYLE
  5
179B5
102
{ACAD_XDICTIONARY
360
17A0A
102
}
102
{ACAD_REACTORS
330
179AF
102
}
330
179AF
100
AcDbVisualStyle
  2
2dWireframe
 70
     4
177
     2
291
     0
 71
     0
176
     1
 72
     2
176
     1
 73
     0
176
     1
 90
        0
176
     1
 40
0.6
176
     1
 41
30.0
176
     1
 63
     7
421
 16777215
176
     1
 74
     1
176
     1
 91
        4
176
     1
 64
     7
176
     1
 65
   257
176
     1
 75
     1
176
     1
175
     1
176
     1
 42
1.0
176
     1
 92
        0
176
     1
 66
   257
176
     1
 43
1.0
176
     1
 76
     1
176
     1
 77
     6
176
     1
 78
     2
176
     1
 67
     7
176
     1
 79
     5
176
     1
170
     0
176
     1
171
     0
176
     1
290
     0
176
     1
 93
        1
176
     1
 44
0.0
176
     1
173
     0
176
     1
1001
ACAD
1000
AcDbSavedByObjectVersion
1070
     0
  0
VISUALSTYLE
  5
179B4
102
{ACAD_XDICTIONARY
360
17A08
102
}
102
{ACAD_REACTORS
330
179AF
102
}
330
179AF
100
AcDbVisualStyle
  2
Basic
 70
     7
177
     2
291
     1
 71
     1
176
     1
 72
     0
176
     1
 73
     1
176
     1
 90
        0
176
     1
 40
0.6
176
     1
 41
30.0
176
     1
 63
     7
421
 16777215
176
     1
 74
     0
176
     1
 91
        4
176
     1
 64
     7
176
     1
 65
   257
176
     1
 75
     1
176
     1
175
     1
176
     1
 42
1.0
176
     1
 92
        8
176
     1
 66
     7
176
     1
 43
1.0
176
     1
 76
     1
176
     1
 77
     6
176
     1
 78
     2
176
     1
 67
     7
176
     1
 79
     5
176
     1
170
     0
176
     1
171
     0
176
     1
290
     0
176
     1
 93
        1
176
     1
 44
0.0
176
     1
173
     0
176
     1
1001
ACAD
1000
AcDbSavedByObjectVersion
1070
     0
  0
VISUALSTYLE
  5
179BB
102
{ACAD_XDICTIONARY
360
17A16
102
}
102
{ACAD_REACTORS
330
179AF
102
}
330
179AF
100
AcDbVisualStyle
  2
Brighten
 70
    12
177
     2
291
     1
 71
     2
176
     1
 72
     2
176
     1
 73
     0
176
     1
 90
        0
176
     1
 40
0.6
176
     1
 41
30.0
176
     1
 63
     7
421
 16777215
176
     1
 74
     1
176
     1
 91
        4
176
     1
 64
     7
176
     1
 65
   257
176
     1
 75
     1
176
     1
175
     1
176
     1
 42
1.0
176
     1
 92
        8
176
     1
 66
     7
176
     1
 43
1.0
176
     1
 76
     1
176
     1
 77
     6
176
     1
 78
     2
176
     1
 67
     7
176
     1
 79
     5
176
     1
170
     0
176
     1
171
     0
176
     1
290
     0
176
     1
 93
        1
176
     1
 44
50.0
176
     1
173
     0
176
     1
1001
ACAD
1000
AcDbSavedByObjectVersion
1070
     0
  0
VISUALSTYLE
  5
179BF
102
{ACAD_XDICTIONARY
360
17A1E
102
}
102
{ACAD_REACTORS
330
179AF
102
}
330
179AF
100
AcDbVisualStyle
  2
ColorChange
 70
    16
177
     2
291
     1
 71
     2
176
     1
 72
     2
176
     1
 73
     3
176
     1
 90
        0
176
     1
 40
0.6
176
     1
 41
30.0
176
     1
 63
     8
421
  8421504
176
     1
 74
     1
176
     1
 91
        4
176
     1
 64
     7
176
     1
 65
   257
176
     1
 75
     1
176
     1
175
     1
176
     1
 42
1.0
176
     1
 92
        8
176
     1
 66
     8
424
  8421504
176
     1
 43
1.0
176
     1
 76
     1
176
     1
 77
     6
176
     1
 78
     2
176
     1
 67
     7
176
     1
 79
     5
176
     1
170
     0
176
     1
171
     0
176
     1
290
     0
176
     1
 93
        1
176
     1
 44
0.0
176
     1
173
     0
176
     1
1001
ACAD
1000
AcDbSavedByObjectVersion
1070
     0
  0
VISUALSTYLE
  5
179B8
102
{ACAD_XDICTIONARY
360
17A10
102
}
102
{ACAD_REACTORS
330
179AF
102
}
330
179AF
100
AcDbVisualStyle
  2
Conceptual
 70
     9
177
     2
291
     0
 71
     3
176
     1
 72
     2
176
     1
 73
     0
176
     1
 90
        0
176
     1
 40
0.6
176
     1
 41
30.0
176
     1
 63
     7
421
 16777215
176
     1
 74
     2
176
     1
 91
        2
176
     1
 64
     7
176
     1
 65
   257
176
     1
 75
     1
176
     1
175
     1
176
     1
 42
179.0
176
     1
 92
        8
176
     1
 66
     7
176
     1
 43
1.0
176
     1
 76
     1
176
     1
 77
     6
176
     1
 78
     2
176
     1
 67
     7
176
     1
 79
     3
176
     1
170
     0
176
     1
171
     0
176
     1
290
     0
176
     1
 93
        1
176
     1
 44
0.0
176
     1
173
     0
176
     1
1001
ACAD
1000
AcDbSavedByObjectVersion
1070
     0
  0
VISUALSTYLE
  5
179BA
102
{ACAD_XDICTIONARY
360
17A14
102
}
102
{ACAD_REACTORS
330
179AF
102
}
330
179AF
100
AcDbVisualStyle
  2
Dim
 70
    11
177
     2
291
     1
 71
     2
176
     1
 72
     2
176
     1
 73
     0
176
     1
 90
        0
176
     1
 40
0.6
176
     1
 41
30.0
176
     1
 63
     7
421
 16777215
176
     1
 74
     1
176
     1
 91
        4
176
     1
 64
     7
176
     1
 65
   257
176
     1
 75
     1
176
     1
175
     1
176
     1
 42
1.0
176
     1
 92
        8
176
     1
 66
     7
176
     1
 43
1.0
176
     1
 76
     1
176
     1
 77
     6
176
     1
 78
     2
176
     1
 67
     7
176
     1
 79
     5
176
     1
170
     0
176
     1
171
     0
176
     1
290
     0
176
     1
 93
        1
176
     1
 44
-50.0
176
     1
173
     0
176
     1
1001
ACAD
1000
AcDbSavedByObjectVersion
1070
     0
  0
VISUALSTYLE
  5
179C7
102
{ACAD_XDICTIONARY
360
17A2E
102
}
102
{ACAD_REACTORS
330
179AF
102
}
330
179AF
100
AcDbVisualStyle
  2
EdgeColorOff
 70
    22
177
     2
291
     1
 71
     2
176
     0
 72
     2
176
     0
 73
     0
176
     0
 90
        0
176
     0
 40
0.6
176
     0
 41
30.0
176
     0
 63
     7
421
 16777215
176
     0
 74
     1
176
     0
 91
        4
176
     0
 64
     7
176
     0
 65
   257
176
     0
 75
     1
176
     0
175
     1
176
     0
 42
1.0
176
     0
 92
        8
176
     2
 66
     7
176
     0
 43
1.0
176
     0
 76
     1
176
     0
 77
     6
176
     0
 78
     2
176
     0
 67
     7
176
     0
 79
     5
176
     0
170
     0
176
     0
171
     0
176
     0
290
     0
176
     0
 93
        1
176
     0
 44
0.0
176
     0
173
     0
176
     0
1001
ACAD
1000
AcDbSavedByObjectVersion
1070
     0
  0
VISUALSTYLE
  5
179BE
102
{ACAD_XDICTIONARY
360
17A1C
102
}
102
{ACAD_REACTORS
330
179AF
102
}
330
179AF
100
AcDbVisualStyle
  2
Facepattern
 70
    15
177
     2
291
     1
 71
     2
176
     1
 72
     2
176
     1
 73
     0
176
     1
 90
        0
176
     1
 40
0.6
176
     1
 41
30.0
176
     1
 63
     7
421
 16777215
176
     1
 74
     1
176
     1
 91
        4
176
     1
 64
     7
176
     1
 65
   257
176
     1
 75
     1
176
     1
175
     1
176
     1
 42
1.0
176
     1
 92
        8
176
     1
 66
     7
176
     1
 43
1.0
176
     1
 76
     1
176
     1
 77
     6
176
     1
 78
     2
176
     1
 67
     7
176
     1
 79
     5
176
     1
170
     0
176
     1
171
     0
176
     1
290
     0
176
     1
 93
        1
176
     1
 44
0.0
176
     1
173
     0
176
     1
1001
ACAD
1000
AcDbSavedByObjectVersion
1070
     0
  0
VISUALSTYLE
  5
179B0
102
{ACAD_XDICTIONARY
360
17A00
102
}
102
{ACAD_REACTORS
330
179AF
102
}
330
179AF
100
AcDbVisualStyle
  2
Flat
 70
     0
177
     2
291
     1
 71
     2
176
     1
 72
     1
176
     1
 73
     1
176
     1
 90
        2
176
     1
 40
0.6
176
     1
 41
30.0
176
     1
 63
     7
421
 16777215
176
     1
 74
     0
176
     1
 91
        0
176
     1
 64
     7
176
     1
 65
   257
176
     1
 75
     1
176
     1
175
     1
176
     1
 42
1.0
176
     1
 92
        8
176
     1
 66
     7
176
     1
 43
1.0
176
     1
 76
     1
176
     1
 77
     6
176
     1
 78
     2
176
     1
 67
     7
176
     1
 79
     5
176
     1
170
     0
176
     1
171
     0
176
     1
290
     0
176
     1
 93
       13
176
     1
 44
0.0
176
     1
173
     0
176
     1
1001
ACAD
1000
AcDbSavedByObjectVersion
1070
     0
  0
VISUALSTYLE
  5
179B1
102
{ACAD_XDICTIONARY
360
17A02
102
}
102
{ACAD_REACTORS
330
179AF
102
}
330
179AF
100
AcDbVisualStyle
  2
FlatWithEdges
 70
     1
177
     2
291
     1
 71
     2
176
     1
 72
     1
176
     1
 73
     1
176
     1
 90
        2
176
     1
 40
0.6
176
     1
 41
30.0
176
     1
 63
     7
421
 16777215
176
     1
 74
     1
176
     1
 91
        0
176
     1
 64
     7
176
     1
 65
   257
176
     1
 75
     1
176
     1
175
     1
176
     1
 42
1.0
176
     1
 92
        0
176
     1
 66
   257
176
     1
 43
1.0
176
     1
 76
     1
176
     1
 77
     6
176
     1
 78
     2
176
     1
 67
     7
176
     1
 79
     5
176
     1
170
     0
176
     1
171
     0
176
     1
290
     0
176
     1
 93
       13
176
     1
 44
0.0
176
     1
173
     0
176
     1
1001
ACAD
1000
AcDbSavedByObjectVersion
1070
     0
  0
VISUALSTYLE
  5
179B2
102
{ACAD_XDICTIONARY
360
17A04
102
}
102
{ACAD_REACTORS
330
179AF
102
}
330
179AF
100
AcDbVisualStyle
  2
Gouraud
 70
     2
177
     2
291
     1
 71
     2
176
     1
 72
     2
176
     1
 73
     1
176
     1
 90
        2
176
     1
 40
0.6
176
     1
 41
30.0
176
     1
 63
     7
421
 16777215
176
     1
 74
     0
176
     1
 91
        0
176
     1
 64
     7
176
     1
 65
   257
176
     1
 75
     1
176
     1
175
     1
176
     1
 42
1.0
176
     1
 92
        0
176
     1
 66
     7
176
     1
 43
1.0
176
     1
 76
     1
176
     1
 77
     6
176
     1
 78
     2
176
     1
 67
     7
176
     1
 79
     5
176
     1
170
     0
176
     1
171
     0
176
     1
290
     0
176
     1
 93
       13
176
     1
 44
0.0
176
     1
173
     0
176
     1
1001
ACAD
1000
AcDbSavedByObjectVersion
1070
     0
  0
VISUALSTYLE
  5
179B3
102
{ACAD_XDICTIONARY
360
17A06
102
}
102
{ACAD_REACTORS
330
179AF
102
}
330
179AF
100
AcDbVisualStyle
  2
GouraudWithEdges
 70
     3
177
     2
291
     1
 71
     2
176
     1
 72
     2
176
     1
 73
     1
176
     1
 90
        2
176
     1
 40
0.6
176
     1
 41
30.0
176
     1
 63
     7
421
 16777215
176
     1
 74
     1
176
     1
 91
        0
176
     1
 64
     7
176
     1
 65
   257
176
     1
 75
     1
176
     1
175
     1
176
     1
 42
1.0
176
     1
 92
        0
176
     1
 66
   257
176
     1
 43
1.0
176
     1
 76
     1
176
     1
 77
     6
176
     1
 78
     2
176
     1
 67
     7
176
     1
 79
     5
176
     1
170
     0
176
     1
171
     0
176
     1
290
     0
176
     1
 93
       13
176
     1
 44
0.0
176
     1
173
     0
176
     1
1001
ACAD
1000
AcDbSavedByObjectVersion
1070
     0
  0
VISUALSTYLE
  5
179B7
102
{ACAD_XDICTIONARY
360
17A0E
102
}
102
{ACAD_REACTORS
330
179AF
102
}
330
179AF
100
AcDbVisualStyle
  2
Hidden
 70
     6
177
     2
291
     0
 71
     1
176
     1
 72
     2
176
     1
 73
     2
176
     1
 90
        0
176
     1
 40
0.6
176
     1
 41
30.0
176
     1
 63
     7
421
 16777215
176
     1
 74
     2
176
     1
 91
        2
176
     1
 64
     7
176
     1
 65
   257
176
     1
 75
     2
176
     1
175
     1
176
     1
 42
40.0
176
     1
 92
        0
176
     1
 66
   257
176
     1
 43
1.0
176
     1
 76
     1
176
     1
 77
     6
176
     1
 78
     2
176
     1
 67
     7
176
     1
 79
     3
176
     1
170
     0
176
     1
171
     0
176
     1
290
     0
176
     1
 93
        1
176
     1
 44
0.0
176
     1
173
     0
176
     1
1001
ACAD
1000
AcDbSavedByObjectVersion
1070
     0
  0
VISUALSTYLE
  5
179C5
102
{ACAD_XDICTIONARY
360
17A2A
102
}
102
{ACAD_REACTORS
330
179AF
102
}
330
179AF
100
AcDbVisualStyle
  2
JitterOff
 70
    20
177
     2
291
     1
 71
     2
176
     0
 72
     2
176
     0
 73
     0
176
     0
 90
        0
176
     0
 40
0.6
176
     0
 41
30.0
176
     0
 63
     7
421
 16777215
176
     0
 74
     1
176
     0
 91
        4
176
     0
 64
     7
176
     0
 65
   257
176
     0
 75
     1
176
     0
175
     1
176
     0
 42
1.0
176
     0
 92
       10
176
     2
 66
     7
176
     0
 43
1.0
176
     0
 76
     1
176
     0
 77
     6
176
     0
 78
     2
176
     0
 67
     7
176
     0
 79
     5
176
     0
170
     0
176
     0
171
     0
176
     0
290
     0
176
     0
 93
        1
176
     0
 44
0.0
176
     0
173
     0
176
     0
1001
ACAD
1000
AcDbSavedByObjectVersion
1070
     0
  0
VISUALSTYLE
  5
179BD
102
{ACAD_XDICTIONARY
360
17A1A
102
}
102
{ACAD_REACTORS
330
179AF
102
}
330
179AF
100
AcDbVisualStyle
  2
Linepattern
 70
    14
177
     2
291
     1
 71
     2
176
     1
 72
     2
176
     1
 73
     0
176
     1
 90
        0
176
     1
 40
0.6
176
     1
 41
30.0
176
     1
 63
     7
421
 16777215
176
     1
 74
     1
176
     1
 91
        4
176
     1
 64
     7
176
     1
 65
   257
176
     1
 75
     7
176
     1
175
     7
176
     1
 42
1.0
176
     1
 92
        8
176
     1
 66
     7
176
     1
 43
1.0
176
     1
 76
     1
176
     1
 77
     6
176
     1
 78
     2
176
     1
 67
     7
176
     1
 79
     5
176
     1
170
     0
176
     1
171
     0
176
     1
290
     0
176
     1
 93
        1
176
     1
 44
0.0
176
     1
173
     0
176
     1
1001
ACAD
1000
AcDbSavedByObjectVersion
1070
     0
  0
VISUALSTYLE
  5
179C6
102
{ACAD_XDICTIONARY
360
17A2C
102
}
102
{ACAD_REACTORS
330
179AF
102
}
330
179AF
100
AcDbVisualStyle
  2
OverhangOff
 70
    21
177
     2
291
     1
 71
     2
176
     0
 72
     2
176
     0
 73
     0
176
     0
 90
        0
176
     0
 40
0.6
176
     0
 41
30.0
176
     0
 63
     7
421
 16777215
176
     0
 74
     1
176
     0
 91
        4
176
     0
 64
     7
176
     0
 65
   257
176
     0
 75
     1
176
     0
175
     1
176
     0
 42
1.0
176
     0
 92
        9
176
     2
 66
     7
176
     0
 43
1.0
176
     0
 76
     1
176
     0
 77
     6
176
     0
 78
     2
176
     0
 67
     7
176
     0
 79
     5
176
     0
170
     0
176
     0
171
     0
176
     0
290
     0
176
     0
 93
        1
176
     0
 44
0.0
176
     0
173
     0
176
     0
1001
ACAD
1000
AcDbSavedByObjectVersion
1070
     0
  0
VISUALSTYLE
  5
179B9
102
{ACAD_XDICTIONARY
360
17A12
102
}
102
{ACAD_REACTORS
330
179AF
102
}
330
179AF
100
AcDbVisualStyle
  2
Realistic
 70
     8
177
     2
291
     0
 71
     2
176
     1
 72
     3
176
     1
 73
     0
176
     1
 90
        2
176
     1
 40
0.6
176
     1
 41
30.0
176
     1
 63
     7
421
 16777215
176
     1
 74
     0
176
     1
 91
        0
176
     1
 64
     7
176
     1
 65
   257
176
     1
 75
     1
176
     1
175
     1
176
     1
 42
1.0
176
     1
 92
        8
176
     1
 66
   257
176
     1
 43
1.0
176
     1
 76
     1
176
     1
 77
     6
176
     1
 78
     2
176
     1
 67
     7
176
     1
 79
     3
176
     1
170
     0
176
     1
171
     0
176
     1
290
     0
176
     1
 93
       13
176
     1
 44
0.0
176
     1
173
     0
176
     1
1001
ACAD
1000
AcDbSavedByObjectVersion
1070
     0
  0
VISUALSTYLE
  5
179C4
102
{ACAD_XDICTIONARY
360
17A28
102
}
102
{ACAD_REACTORS
330
179AF
102
}
330
179AF
100
AcDbVisualStyle
  2
Shaded
 70
    27
177
     2
291
     0
 71
     2
176
     1
 72
     2
176
     1
 73
     1
176
     1
 90
        2
176
     1
 40
0.6
176
     1
 41
30.0
176
     1
 63
     7
421
 16777215
176
     1
 74
     0
176
     1
 91
        4
176
     1
 64
     7
176
     1
 65
   257
176
     1
 75
     1
176
     1
175
     1
176
     1
 42
1.0
176
     1
 92
        8
176
     1
 66
   257
176
     1
 43
1.0
176
     1
 76
     1
176
     1
 77
     6
176
     1
 78
     2
176
     1
 67
     8
425
  7895160
176
     1
 79
     3
176
     1
170
     0
176
     1
171
     0
176
     1
290
     0
176
     1
 93
        5
176
     1
 44
0.0
176
     1
173
     0
176
     1
1001
ACAD
1000
AcDbSavedByObjectVersion
1070
     0
  0
VISUALSTYLE
  5
179C3
102
{ACAD_XDICTIONARY
360
17A26
102
}
102
{ACAD_REACTORS
330
179AF
102
}
330
179AF
100
AcDbVisualStyle
  2
Shaded with edges
 70
    26
177
     2
291
     0
 71
     2
176
     1
 72
     2
176
     1
 73
     1
176
     1
 90
        2
176
     1
 40
0.6
176
     1
 41
30.0
176
     1
 63
     7
421
 16777215
176
     1
 74
     1
176
     1
 91
        2
176
     1
 64
     7
176
     1
 65
   257
176
     1
 75
     2
176
     1
175
     1
176
     1
 42
1.0
176
     1
 92
        8
176
     1
 66
   257
176
     1
 43
1.0
176
     1
 76
     1
176
     1
 77
     6
176
     1
 78
     2
176
     1
 67
     7
176
     1
 79
     3
176
     1
170
     0
176
     1
171
     0
176
     1
290
     0
176
     1
 93
        5
176
     1
 44
0.0
176
     1
173
     0
176
     1
1001
ACAD
1000
AcDbSavedByObjectVersion
1070
     0
  0
VISUALSTYLE
  5
179C0
102
{ACAD_XDICTIONARY
360
17A20
102
}
102
{ACAD_REACTORS
330
179AF
102
}
330
179AF
100
AcDbVisualStyle
  2
Shades of Gray
 70
    23
177
     2
291
     0
 71
     2
176
     1
 72
     2
176
     1
 73
     3
176
     1
 90
        0
176
     1
 40
0.6
176
     1
 41
30.0
176
     1
 63
     7
421
 16777215
176
     1
 74
     2
176
     1
 91
        2
176
     1
 64
     7
176
     1
 65
     7
176
     1
 75
     1
176
     1
175
     1
176
     1
 42
40.0
176
     1
 92
        8
176
     1
 66
     7
176
     1
 43
1.0
176
     1
 76
     1
176
     1
 77
     6
176
     1
 78
     2
176
     1
 67
     7
176
     1
 79
     3
176
     1
170
     0
176
     1
171
     0
176
     1
290
     0
176
     1
 93
        1
176
     1
 44
0.0
176
     1
173
     0
176
     1
1001
ACAD
1000
AcDbSavedByObjectVersion
1070
     0
  0
VISUALSTYLE
  5
179C1
102
{ACAD_XDICTIONARY
360
17A22
102
}
102
{ACAD_REACTORS
330
179AF
102
}
330
179AF
100
AcDbVisualStyle
  2
Sketchy
 70
    24
177
     2
291
     0
 71
     1
176
     1
 72
     2
176
     1
 73
     2
176
     1
 90
        0
176
     1
 40
0.6
176
     1
 41
30.0
176
     1
 63
     7
421
 16777215
176
     1
 74
     2
176
     1
 91
        2
176
     1
 64
     7
176
     1
 65
     7
176
     1
 75
     1
176
     1
175
     1
176
     1
 42
40.0
176
     1
 92
       11
176
     1
 66
     7
176
     1
 43
1.0
176
     1
 76
     1
176
     1
 77
     6
176
     1
 78
     2
176
     1
 67
     7
176
     1
 79
     6
176
     1
170
     0
176
     1
171
     0
176
     1
290
     0
176
     1
 93
        1
176
     1
 44
0.0
176
     1
173
     0
176
     1
1001
ACAD
1000
AcDbSavedByObjectVersion
1070
     0
  0
VISUALSTYLE
  5
179BC
102
{ACAD_XDICTIONARY
360
17A18
102
}
102
{ACAD_REACTORS
330
179AF
102
}
330
179AF
100
AcDbVisualStyle
  2
Thicken
 70
    13
177
     2
291
     1
 71
     2
176
     1
 72
     2
176
     1
 73
     0
176
     1
 90
        0
176
     1
 40
0.6
176
     1
 41
30.0
176
     1
 63
     7
421
 16777215
176
     1
 74
     1
176
     1
 91
        4
176
     1
 64
     7
176
     1
 65
   257
176
     1
 75
     1
176
     1
175
     1
176
     1
 42
1.0
176
     1
 92
       12
176
     1
 66
     7
176
     1
 43
1.0
176
     1
 76
     1
176
     1
 77
     6
176
     1
 78
     2
176
     1
 67
     7
176
     1
 79
     5
176
     1
170
     0
176
     1
171
     0
176
     1
290
     0
176
     1
 93
        1
176
     1
 44
0.0
176
     1
173
     0
176
     1
1001
ACAD
1000
AcDbSavedByObjectVersion
1070
     0
  0
VISUALSTYLE
  5
179B6
102
{ACAD_XDICTIONARY
360
17A0C
102
}
102
{ACAD_REACTORS
330
179AF
102
}
330
179AF
100
AcDbVisualStyle
  2
Wireframe
 70
     5
177
     2
291
     0
 71
     0
176
     1
 72
     2
176
     1
 73
     0
176
     1
 90
        0
176
     1
 40
0.6
176
     1
 41
30.0
176
     1
 63
     7
421
 16777215
176
     1
 74
     1
176
     1
 91
        4
176
     1
 64
     7
176
     1
 65
   257
176
     1
 75
     1
176
     1
175
     1
176
     1
 42
1.0
176
     1
 92
        0
176
     1
 66
   257
176
     1
 43
1.0
176
     1
 76
     1
176
     1
 77
     6
176
     1
 78
     2
176
     1
 67
     7
176
     1
 79
     3
176
     1
170
     0
176
     1
171
     0
176
     1
290
     0
176
     1
 93
        1
176
     1
 44
0.0
176
     1
173
     0
176
     1
1001
ACAD
1000
AcDbSavedByObjectVersion
1070
     0
  0
VISUALSTYLE
  5
179C2
102
{ACAD_XDICTIONARY
360
17A24
102
}
102
{ACAD_REACTORS
330
179AF
102
}
330
179AF
100
AcDbVisualStyle
  2
X-Ray
 70
    25
177
     2
291
     0
 71
     2
176
     1
 72
     2
176
     1
 73
     1
176
     1
 90
        1
176
     1
 40
0.5
176
     1
 41
30.0
176
     1
 63
     7
421
 16777215
176
     1
 74
     1
176
     1
 91
        0
176
     1
 64
     7
176
     1
 65
   257
176
     1
 75
     1
176
     1
175
     1
176
     1
 42
1.0
176
     1
 92
        8
176
     1
 66
     7
176
     1
 43
1.0
176
     1
 76
     1
176
     1
 77
     6
176
     1
 78
     2
176
     1
 67
     7
176
     1
 79
     3
176
     1
170
     0
176
     1
171
     0
176
     1
290
     0
176
     1
 93
       13
176
     1
 44
0.0
176
     1
173
     0
176
     1
1001
ACAD
1000
AcDbSavedByObjectVersion
1070
     0
  0
DICTIONARYVAR
  5
179F9
102
{ACAD_REACTORS
330
179F3
102
}
330
179F3
100
DictionaryVariables
280
     0
  1
1:1
  0
DICTIONARYVAR
  5
179F5
102
{ACAD_REACTORS
330
179F3
102
}
330
179F3
100
DictionaryVariables
280
     0
  1
STANDARD
  0
DICTIONARYVAR
  5
179F4
102
{ACAD_REACTORS
330
179F3
102
}
330
179F3
100
DictionaryVariables
280
     0
  1
STANDARD
  0
DICTIONARYVAR
  5
179F6
102
{ACAD_REACTORS
330
179F3
102
}
330
179F3
100
DictionaryVariables
280
     0
  1
Imperial24
  0
DICTIONARYVAR
  5
179F7
102
{ACAD_REACTORS
330
179F3
102
}
330
179F3
100
DictionaryVariables
280
     0
  1
Imperial24
  0
DICTIONARYVAR
  5
179FB
102
{ACAD_REACTORS
330
179F3
102
}
330
179F3
100
DictionaryVariables
280
     0
  1
1
  0
DICTIONARYVAR
  5
179FC
102
{ACAD_REACTORS
330
179F3
102
}
330
179F3
100
DictionaryVariables
280
     0
  1
15
  0
DICTIONARYVAR
  5
179FA
102
{ACAD_REACTORS
330
179F3
102
}
330
179F3
100
DictionaryVariables
280
     0
  1
0
  0
DICTIONARYVAR
  5
179F8
102
{ACAD_REACTORS
330
179F3
102
}
330
179F3
100
DictionaryVariables
280
     0
  1
0
  0
DICTIONARY
  5
17A34
330
179D2
100
AcDbDictionary
280
     1
281
     1
  3
ACAD_XREC_ROUNDTRIP
360
17A35
  0
DICTIONARY
  5
179A0
330
1799F
100
AcDbDictionary
280
     1
281
     1
  3
BUMPTILE
360
179A2
  3
DIFFUSETILE
360
179A1
  3
OPACITYTILE
360
179A5
  3
REFLECTIONTILE
360
179A4
  3
REFRACTIONTILE
360
179A6
  3
SPECULARTILE
360
179A3
  0
DICTIONARY
  5
17998
330
17997
100
AcDbDictionary
280
     1
281
     1
  3
BUMPTILE
360
1799A
  3
DIFFUSETILE
360
17999
  3
OPACITYTILE
360
1799D
  3
REFLECTIONTILE
360
1799C
  3
REFRACTIONTILE
360
1799E
  3
SPECULARTILE
360
1799B
  0
DICTIONARY
  5
179A8
330
179A7
100
AcDbDictionary
280
     1
281
     1
  3
BUMPTILE
360
179AA
  3
DIFFUSETILE
360
179A9
  3
FBXASSET
360
179DE
  3
OPACITYTILE
360
179AD
  3
REFLECTIONTILE
360
179AC
  3
REFRACTIONTILE
360
179AE
  3
SPECULARTILE
360
179AB
  0
DICTIONARY
  5
17A30
330
179CE
100
AcDbDictionary
280
     1
281
     1
  3
ACAD_XREC_ROUNDTRIP
360
17A31
  0
DICTIONARY
  5
17A32
330
179D0
100
AcDbDictionary
280
     1
281
     1
  3
ACAD_XREC_ROUNDTRIP
360
17A33
  0
DICTIONARY
  5
179FD
330
179CA
100
AcDbDictionary
280
     1
281
     1
  3
ACAD_ROUNDTRIP_2008_TABLESTYLE_CELLSTYLEMAP
360
179FE
  0
DICTIONARY
  5
17A0A
330
179B5
100
AcDbDictionary
280
     1
281
     1
  3
ACAD_XREC_ROUNDTRIP
360
17A0B
  0
DICTIONARY
  5
17A08
330
179B4
100
AcDbDictionary
280
     1
281
     1
  3
ACAD_XREC_ROUNDTRIP
360
17A09
  0
DICTIONARY
  5
17A16
330
179BB
100
AcDbDictionary
280
     1
281
     1
  3
ACAD_XREC_ROUNDTRIP
360
17A17
  0
DICTIONARY
  5
17A1E
330
179BF
100
AcDbDictionary
280
     1
281
     1
  3
ACAD_XREC_ROUNDTRIP
360
17A1F
  0
DICTIONARY
  5
17A10
330
179B8
100
AcDbDictionary
280
     1
281
     1
  3
ACAD_XREC_ROUNDTRIP
360
17A11
  0
DICTIONARY
  5
17A14
330
179BA
100
AcDbDictionary
280
     1
281
     1
  3
ACAD_XREC_ROUNDTRIP
360
17A15
  0
DICTIONARY
  5
17A2E
330
179C7
100
AcDbDictionary
280
     1
281
     1
  3
ACAD_XREC_ROUNDTRIP
360
17A2F
  0
DICTIONARY
  5
17A1C
330
179BE
100
AcDbDictionary
280
     1
281
     1
  3
ACAD_XREC_ROUNDTRIP
360
17A1D
  0
DICTIONARY
  5
17A00
330
179B0
100
AcDbDictionary
280
     1
281
     1
  3
ACAD_XREC_ROUNDTRIP
360
17A01
  0
DICTIONARY
  5
17A02
330
179B1
100
AcDbDictionary
280
     1
281
     1
  3
ACAD_XREC_ROUNDTRIP
360
17A03
  0
DICTIONARY
  5
17A04
330
179B2
100
AcDbDictionary
280
     1
281
     1
  3
ACAD_XREC_ROUNDTRIP
360
17A05
  0
DICTIONARY
  5
17A06
330
179B3
100
AcDbDictionary
280
     1
281
     1
  3
ACAD_XREC_ROUNDTRIP
360
17A07
  0
DICTIONARY
  5
17A0E
330
179B7
100
AcDbDictionary
280
     1
281
     1
  3
ACAD_XREC_ROUNDTRIP
360
17A0F
  0
DICTIONARY
  5
17A2A
330
179C5
100
AcDbDictionary
280
     1
281
     1
  3
ACAD_XREC_ROUNDTRIP
360
17A2B
  0
DICTIONARY
  5
17A1A
330
179BD
100
AcDbDictionary
280
     1
281
     1
  3
ACAD_XREC_ROUNDTRIP
360
17A1B
  0
DICTIONARY
  5
17A2C
330
179C6
100
AcDbDictionary
280
     1
281
     1
  3
ACAD_XREC_ROUNDTRIP
360
17A2D
  0
DICTIONARY
  5
17A12
330
179B9
100
AcDbDictionary
280
     1
281
     1
  3
ACAD_XREC_ROUNDTRIP
360
17A13
  0
DICTIONARY
  5
17A28
330
179C4
100
AcDbDictionary
280
     1
281
     1
  3
ACAD_XREC_ROUNDTRIP
360
17A29
  0
DICTIONARY
  5
17A26
330
179C3
100
AcDbDictionary
280
     1
281
     1
  3
ACAD_XREC_ROUNDTRIP
360
17A27
  0
DICTIONARY
  5
17A20
330
179C0
100
AcDbDictionary
280
     1
281
     1
  3
ACAD_XREC_ROUNDTRIP
360
17A21
  0
DICTIONARY
  5
17A22
330
179C1
100
AcDbDictionary
280
     1
281
     1
  3
ACAD_XREC_ROUNDTRIP
360
17A23
  0
DICTIONARY
  5
17A18
330
179BC
100
AcDbDictionary
280
     1
281
     1
  3
ACAD_XREC_ROUNDTRIP
360
17A19
  0
DICTIONARY
  5
17A0C
330
179B6
100
AcDbDictionary
280
     1
281
     1
  3
ACAD_XREC_ROUNDTRIP
360
17A0D
  0
DICTIONARY
  5
17A24
330
179C2
100
AcDbDictionary
280
     1
281
     1
  3
ACAD_XREC_ROUNDTRIP
360
17A25
  0
XRECORD
  5
17A35
102
{ACAD_REACTORS
330
17A34
102
}
330
17A34
100
AcDbXrecord
280
     1
102
DISPLAYNAME
  1
Imperial24
102
FLAGS
 90
        0
  0
XRECORD
  5
179A2
102
{ACAD_REACTORS
330
179A0
102
}
330
179A0
100
AcDbXrecord
280
     1
270
     1
271
     1
  0
XRECORD
  5
179A1
102
{ACAD_REACTORS
330
179A0
102
}
330
179A0
100
AcDbXrecord
280
     1
270
     1
271
     1
  0
XRECORD
  5
179A5
102
{ACAD_REACTORS
330
179A0
102
}
330
179A0
100
AcDbXrecord
280
     1
270
     1
271
     1
  0
XRECORD
  5
179A4
102
{ACAD_REACTORS
330
179A0
102
}
330
179A0
100
AcDbXrecord
280
     1
270
     1
271
     1
  0
XRECORD
  5
179A6
102
{ACAD_REACTORS
330
179A0
102
}
330
179A0
100
AcDbXrecord
280
     1
270
     1
271
     1
  0
XRECORD
  5
179A3
102
{ACAD_REACTORS
330
179A0
102
}
330
179A0
100
AcDbXrecord
280
     1
270
     1
271
     1
  0
XRECORD
  5
1799A
102
{ACAD_REACTORS
330
17998
102
}
330
17998
100
AcDbXrecord
280
     1
270
     1
271
     1
  0
XRECORD
  5
17999
102
{ACAD_REACTORS
330
17998
102
}
330
17998
100
AcDbXrecord
280
     1
270
     1
271
     1
  0
XRECORD
  5
1799D
102
{ACAD_REACTORS
330
17998
102
}
330
17998
100
AcDbXrecord
280
     1
270
     1
271
     1
  0
XRECORD
  5
1799C
102
{ACAD_REACTORS
330
17998
102
}
330
17998
100
AcDbXrecord
280
     1
270
     1
271
     1
  0
XRECORD
  5
1799E
102
{ACAD_REACTORS
330
17998
102
}
330
17998
100
AcDbXrecord
280
     1
270
     1
271
     1
  0
XRECORD
  5
1799B
102
{ACAD_REACTORS
330
17998
102
}
330
17998
100
AcDbXrecord
280
     1
270
     1
271
     1
  0
XRECORD
  5
179AA
102
{ACAD_REACTORS
330
179A8
102
}
330
179A8
100
AcDbXrecord
280
     1
270
     1
271
     1
  0
XRECORD
  5
179A9
102
{ACAD_REACTORS
330
179A8
102
}
330
179A8
100
AcDbXrecord
280
     1
270
     1
271
     1
  0
XRECORD
  5
179DE
102
{ACAD_REACTORS
330
179A8
102
}
330
179A8
100
AcDbXrecord
280
     1
 70
     1
 90
1959938040
 71
     1
  1
6F8A2F7B-839F-486D-8BA0-2618F4F29EEA
311
504B0304140006080800247BEE54D37A67FE28010000A80100004F00000030314436393034332D454236462D344146372D394232342D3644454241313744353533332F4173736574446174612F446566696E6974696F6E4974657261746F7250726F706572746965732E62696E6550BD4EC33010361D400C0C483C0003ABC9
311
8F5DDB4142285662C4C002ECC80DA62D72D3AA4EC4C040469E83BD036FC0C2002F55EE683A71D2E7BBFBEEEF93DF0821EBDE20243B800EDE03F097AE76CB69755B4DDCCC925D64FC7C64FD0944CCB0B810B9A686C98C7293E4547329692A4B2E991A263C3303E8DB0314EED1B6BEC195D7D35039EF6DEDE66D3804A2BF713C
311
B30DDCB2FE1487F60941D701C8B61070D378A308453E03ECC3E2ECC286E09AF3284E0A91C59CD1520B43796E24CD74CAA9284A9D27B2180E198B6E5C98B7CBCA85481895A7466AAA5806ED4A1454E93CA6A94894E126CDCA328F9A498B5F73843246B59DFA288E7A09F78B7A7C0522BBF7A78FF5EBE6DF305FA4DF5FE8710E
311
BDFAB9EBB00EF689F93F7B19ACB6FC5F7FBF0FFBB63CC6BF504B0304140006080800247BEE54BE8A1AF5F0000000300200004500000030314436393034332D454236462D344146372D394232342D3644454241313744353533332F4173736574446174612F496E7374616E636550726F706572746965732E62696EEB606060
311
F80F0540260323103700495E20ED9E9A975A94991C9C9C919A9BA802143073B37034723377D2B530B674D335B13073D1B5707234D0353233B470337133B2747575644768046931363471713532B5D435353131D635313332D475727372D13534373670367376B67474B5042A03DBCBA019D37FE8ABC6157B20CD04146B0062
311
181F4C03F940F0C11EA29A8141C08141002C0426541C106CAC2CA046088033B02A030AC2157C6006F21A8018AAF50194E6010A610250382264E08660284CD9E98021862280A91564B406929A0FF62C401E28B6F88038B83CB1243943D7A928312F25350524131B1BFB9F161800504B0304140006080800247BEE5488E57597
311
CD3F0000904100006B00000030314436393034332D454236462D344146372D394232342D3644454241313744353533332F5265736F75726365732F36463841324637422D383339462D343836442D384241302D3236313846344632394545412F7468756D626E61696C2F302F67656E657269635F706E67355B773CD4FF1FBF
311
73E71C0E67EF7576C9DEF3EC995D46C6A1EC5046649CBDF79E192942562825CE965D8A868C2842C8DE9FDFD1F7E7F138F7078FCF6B3F5FCFD7EBFDFEC41B196891913091804020321D6D7513FC77D8C5070EC3FFEE51B21F068154CC75D455CC028A3EA68992803810109FDDE5D5CEC5521B28A1B422BF80741695D5B529DA
311
1C2D058AD2388BDA9F476F7C2CADC939304173DBF48A452BF8A700C0C70C3D121C1AA15A5270C22E2B9E28763651F7DA0D12CE11077B2ECD0D560B5E3DE2368B1E65C5E1C87384A4CC5F2D9FB8BE39E9B77C753783A37998F5CEF1B4FEE553463245C9712270880DF339E0B882A6BA713D865F6F384C842D440934EF264F4A
311
304F8DE4EEFA1E2BF5E2D91F5ADD9613D6E31DDB33ED31DB1D7916CAF091286EA3D31B9CFECB78BB0060245B943C4C040119FF780A74DD308BA9D028678674EB5504ECF284EE814DAED07440BAF649BE4B55DA2890F4D73E2D489A59EE54FDB0A85B59F2F52C4858A02705C4815A792B0C4A996A2023ECB195073E115E3E36
311
47F64243A8338F2000BCB58DA5692C7E7C3D413F963FEDF3CF00FBB0F831A9D51360FECA43819F527B89FA260EB63C5DA676830AA3626A3693B23F1A17A0DFFCE3EE164E31B5365EDF0C89EF64D8E38AB0BA9A1117D7C3A0EC44F44F4023095E80BA610DE336D0F99593A88BFC5306E72DF98F7FD132ED95878DF2964EA7E4
311
3071359FD83B2BDF9C6B5BDF768F0F3C0FC351199526F53D9460A34511F75D1B63E488178569472C91A94497807A3FD4A390C6558F26D416365C3656DE6E769DA9D8FC73774E1709812842DD8EF96AED1960F79D21B395CDDFE6F92CB4EB962A4668C76990E2EF29798C8941D67DA50F4A5F947872460F1F6FDB794E8A29FD
311
7AC0C0D6E0714339CE258FB17AE8535221E3464A10F29A0BE5EEECEFC5675926A89F49EB14E5711894F6586DB5754EB4D5DA9C6437EBA57DB97A24F8B8A8DB295FFD73266CF57E82694DF5166DDF93573AFE9C9C5EB05F8FEF8E89E0A8917B0B3724DB7BEBB53252581EFC3E38166BA131A3A5B42FE2AD00A769BBFA4458D2
311
DE7822F8C4F63D0B8E21B285AE13325F3410A435C648C9D91FDEB109E73CEDA7BC796961AF79175E1A3CE4C5E8B0D009B0C9E29EFD98BC8E97554E3D8D838424E270F7685226E5AC268E021EDE3522D583E8F20C0BDE2959EF5BBFEEDAB32FE9A3ED0E39F211A86AA9DEBFC68182EDED132AB8BB794442D2D7EA9F4D8BFF52
311
BC4D55BB165124EE90A42D101E67BBBB292FFB4F66DE5BF2300E44546757DA7CEF8932BFC9F92A0707953491A55C5A5ACEDABD9FA1AEA01BAC3DC5A24E22E7C47213493996EFBC369D086ED9397C9BA6C7F9855C7BD5E15BFC8C53DB3D2A4C5901A57ACD2FBDF4D1676E95338B2C2BCE65FDA4C64F5FEFDC7D9CA5AA1FCF11
311
E193F2FDABF0F4916BF13FB916A224380E6462A9815F2300DC49CC4DF8D055CEF76462F4B7A7ACA7365C2707891370BC1D0AA6203C44CCAB47084FEC057F27FFCD57F89B8B9852459798A675C66BD7CE572CAF71FF7E6D7ECF7BF62CAB7B3F1107DCD04DC55A3F9961700286141C94A4F771FEB2BCDA2DDEE0CB0BAE402FF1
311
DB0100F8E475DFFFC074DDB4498AB7D186A7654DDB1CB680D703D47CEB4E72F8CB13D86A4AA68116E26387B93FD6738779B34FEDB8E517EDF2BAF28D9BE93A1D3A164320E07D42E514725C29515FF361754213EDE06B079A2E99EB1CA82A02019EADEEB87B9AF005BD04BBCECB14AACD6B24EFBE482194A97DD32400685FF1
311
FEF1544D1B14EFB1E7F08E6D2CD2AF52DE757F35F5E62332EE88EA26417AD5C3E0E319D68F25414E6D672BD4522B278C57D18F0113921C71D96527E091F00CEB15AE23D24667369BD3CEFA10C7549D930890BA4366F4EBC55F01F746109F98ABCDD5A3EE06619C6AD78AB33E48E4C9BD21BF7478B385EC05C4F8987E2C1BFA
311
0A60EBEDAA0AE0B015C2720ECE180FB6F2DEFBEB822D96338C9B63822183BBF52FB664A7AE57003AABCE512BF77E7E31BDA2E739AC4C131657DDFE5225E900FB56CC01CDE808FA4A9C9DA16AC679656BB64796283D89812B8F91136AE18EE5EBBAF47A73BE3C153EB5D4CD491B4BFB4FE690A4CF9ABA08C0D8AA64220C438C
311
96EA6CA80B58FE5761E697B3A292EB9FBDA502FA863E49FE694ADDFFF9D62C520BDD1A22014147A0903A05B9B729F54272EF83931FEEC057BFF8C8055C279EAC5C0011804828734024F6CFA319C9CC6867C727184465CD9BB7ED386AFFD96B294A85E3802FAE47244602D8273615952B98C4F23F7EAE4463D9D638EEE374A2
311
0959E0FE519C4CFB0FBFE5DD80C2AA3F9DB961D1BDE57E67C9BB47B77FDD74EE3094F5DBBE3EBC1FBDB7393F5116263009E2EFE1AF9A221B2AE234C902BF70E9F280ED23E73908361565964333A3F01D0B006AF32FB21AA1316744B489D5A198E85299241735BE559675130955C902A8ED761FC0DBE337A9F91919AF5CE32A
311
F902ADF9AB2615E00E8A94586BA1A90839B61832FF1BFB76D2EFADE6DB1BA04CCAD3DA649E7E2A0219F592E22F2AD54847EEA8E42271011E9074F8F3DD9FBA6CDF88FFC9FC7E811AD1CA8F4557CE4AFC7BBEDCF0114A48689F20A584520C74DA8127124B767E2FB91A6B186246727BE63C9445BAE02088D58B8EFDC0F10724
311
07CD9B89A13F6303B4A928F593AD489B58E6869325790ADC406036C591729FE14021F94B7796BB11848D463536A092A26F077F94639F7CEEE2A724C66EC885F4A24F8B8A0AC321F8FD149BA529460FAA34E4663C02D41FDF80BCA222D42F0ABFF8490F4FA74C673807C2051D8E467B47B616072860069A9A303ABA9B319D58
311
404461401B0A0F9BE5E1E151C14BC33B32ABE03DDE91708DFAEB15E7C0D593C86BB7D7EC17BE56E57975F077BFD5525F3A1A361D584A75E08CF29FC7B44B2B3085014F3A5A14517377C3F6B8F37E59514C3B12F8AACDEDDA4DFC49BE5710101534CD6FB6DE15B50F11A09472AABA727F0C49D9CB906B158030065F48EB3625
311
E010CEC1D511D0053474B11E6A4F01C0D6EF1BED3A944FDEC70E0DDCDC756C86545910E0DAE3BE3AA9A404574C2995CD5CAF9549226BC94B4F4F0F5F9086F418F6B32346464610D8BC7391D3C3A3CCF04CFC1FB2A3A3170E369511868F14EEA4E5E438CC73DB1F3248AA94B6B2FF33B222FF3D1E7BF146CAD229770158063B
311
CE4F5391964DF62F7E52A7BE0EEA829C9E13C4C147D6F93FE59E111DAB5E4594D6F3CD1AD375EE039930EFE5AF2BB2D41C83C7DABD8C659BAFBE8FAB392CA634F3D15C1D945DB4588D2B0824A4EC928AAC565557CA2F0DAA588CA5BE30B3A8004F7BF005E96CBF891D7F18112A3619FDF530DC8AA64954258E1811789B5189
311
B49B4EB53F5F89F7D37523894F3EB57B373763C91E502F52CC99EB7BDDF933FC324C4FFC2561DFFA7339FAFDD0A4BFBE6D3A8FF9ED1FC49898139864602458968913181918F719CCF5A68B2EE9C1FF050E34E63107003B8120FA982C21B30A874E4F5E4B38D5A8290C4B8D9BE48A0BE31EA995BDC37AC6DE90BA17D259DEF5
311
3605D55922FEB1855D915B659FBEB350EE0DFB2F9F766E1C84CC8964B75D08667445EAB966015F63A18A9E0A325C1B3DC628C0D3CB60F767FA93CC65F25458BD23C3B312716E5F40E5858AC06EBA9AB14F95DB99147B832069201541D09A0D856E12C629CF32683760EE855537D1901988D5EBC156676C7DD51D7207CF3267
311
AF1D76C2AD867315E44618015313A98B19941C696FED3461CAA9B5415F918556D7802EDACEFD6B2E45853A9735DFC9DBF7E440F9319F8B6805A973BCCDC76C069A9144E51F187EDCC12FC31B5DEAAF0A76137199B106EC84ADA6B6EE697D4E6A96E007417F4E880E8B1E89B4BCE9D81EF611E2ED8F0C1A6C25F620FAFAAB65
311
6A7C42D464880E8AFAB0E0FC8EA38CA9A8AEEAEE3E4648BA4680270A89743CDD3E6C6CBF34B7B640EFA285ABC7EA0A1E28F3CC963D114A80123EE66D0AF7D5380EB41909B605AB4765B709B808590458157E69BA1378FEC4B48CAF6A730E3BE3C5EF2DD1A5EAF94B1DDE50CEB55DDFD7EE9A16747FA4B223359FB1FCC69E11
311
94892BABB93A1D5C4E807AC0EA2E30180811E77A2291F6E7F7FAA5E0F60215BC6024E48DE436C511F0628B8CA189982D4D83CCA17D305A7E923C37941CFDFDCD93ACAF735EF5F0E61BBD3E6C41A59B242790D3A3BAC7064DCD89AA2E37214EC839820949D5CAA31E240D2948E48F690298974A96BA9A8432BC90F5071D6537
311
C9666EA4564796B7AFFFA548077BEEA75F63083435074BA182F3699557397F71548383FDA8CA34D99B981E72835ECDA5DDDC151315173D05A21F651AAF8524E88209E2E7A737ED1045800CE3390050BCFB8BE588DF111617874C62575039CA588EEFDEFEFE319B739DE2EDC147092A262611E159650E787917885EF08F1F51
311
B8F2D8A71D60B58B190FEF9541A1BE94BC19FEA50784DA1419FE4B0FB51B8D36B5FF8E1286FD8AF42B91E59A5F1CC4D60174E764045FD8C57B18209B217F89A62252BD20BE0E63E12B8E8F029FE19E0E8D0870F58721A557082250D5424F7909369376E41666C0EE77CD87CB283F661D5FB6D0DA023CB67320A20DC7BE661E
311
9E1BFE5463085C557DA1FF9BE835733766C3D139F2CF9E2208873AD0EB4814DE9E6BF2CAF81614D4D43906ED1C05A3265CABBFE192770FC2F64F940CB6B17B5F166F133C9AEEAD2641807C3E69515171DD74C4A85311513D6EC9530B3B601B6BA3EBFF3B5C3D2F7D69765141E345F75433953D013ADDF8F6AA7DC3F4A7563F
311
E5C7D367937E2900D7EAD0F9FC9A4A1A9B5BDF1FEF08532660C01C5D6DE22199AA774383E306DAB87E301ABB7D213887F9869D4942D0D71E94B27EDF216A318BD488D45DF84529EF575AF3C3938C0AAA0215B01994153E2054A0B894DA5C784980633AAD48576957CF4AEAEAFADC7C587368551C73DBE1E57C58AC713303A8
311
BFC258BD04B51724459FF9E24C03A81E0E0679CEB9B348C0DC998FEB9C6D6EFA77D247CC8F92D3848599ED89A23218D0636465AD1CEEB7DC140D7426F83491C4E8E8281C2FB35240918FFECE880CA2A42D70E8B20B34DF5221C7DB0CF90ECCB9C745B37A47E9B716FF7A97B7A252C1F3814DC7B1E1A7F72B8751D524EF7CAE
311
45B0C73B3BE7D08ED39781B380DDFC9AA4A4749C9493DB5BAD07A6EA6C092FBD0E85DB004DF06B8C9D3089C5320187E4CE1846158C7EA7DDAE8AD9AFFF21AA3A1026BB06A259845E8232DEE62811A4DA9CEAB3A4887320B76E2AE5615EAB7BDF738CBDD01F1E64064BC13D9EC53576751CA8CACD58B3CEB0E6CA585BD089B2
311
A59B9FC101403387AADBDBE70586B93D64BF3AD4453EF9C3B6A93817E8346991798601344F79A83C51F3D50F7BF2683A3605F51A72449489E0EE6169C749C60B1035651103AEE24D24E51A759C840DD3FC6504DA6FE107510E447B43461C79D22970B75DE5E1BD3007D1AFC619A4A4A69B5626AF5E9B8374E20677F77E2F8E
311
73DF868E8BEC7EBA7B6A75EEF7205E1AB9486CB642741D6E03FF13FCCEDB1C4AC129886268B01CDF4B124AF797CF784F3C6DEC97A17D4B558070A0F1C04DA4FF9BDBF34159AEFE958479824B3F58EBD1E19088A2AFDE501B6F2052368A3FD0E650A179EFAB1561E1D27527077136E652676C3670F42DCB3352F48F6BC86D2C
311
3B0051727E41A0A4DC6CE2BE9D47F5CAA2935A3C0539AF080665997194ABECD723B08129CC5B6B21D2E7D54CD4D12610E7E9FB8306771A89576C7A982002775ED44F3F744CF21EEBB27A631671D921938AAEE3EB0D19CD1E083727F607823E817BF599DCED5394E37EEBC2E88782E638920CA641EF74D4CDFCDEF06F4278EC
311
B18E31E7E9876F2D783C8BF429C75395F57E98C2B495A3DA077EB3AC3C158608B6B57FE3EA48484D9A480096FCEE0DE880950E7E5A5714131C5C41AAA29FD19AE81AC145FA1B9E85C7169A5AB837B213493DF7E9AA4B5FBF9CDEB36EBD21EF1181B7CF7366AB2A951D01E37AF4EB835D1BE8C117CFBE7625D2EBCDB0B20C5A
311
4B45CED0BCDE3EE8DA9DA78C2E21DEAAFFD1197E463C33CC6A80FB785669B856EFF7A8CCCA2841B5A5369173320B1170C368B2748D81062EA0296E5E2D95D7667A4A46D98A6FF475C76AAB0A8C8D45E226FAFC9FE0133EA9F60111F99CA81ACE03A1D14C89E8B0D69079C91464FA1D99E651D0EAF606F345C42A8A1AA9BA39
311
1031582B96D5B4176A77AADB01F12FD298A75DEEBB2C82F0B8650E880722F8DDD90C56A7A058E5FDEF1AC93545BA27367C76F5D8F9690CB6F8DAE141EDD7971F0FB548A2AE435F224D6E5954CA155512F7332029D5A1230854B79F258EC5FFDB09F5F6343A8EB193229B7F7E79B3E48F8E183860B38C8269D1B53738FF1E0B
311
ACF6AADA6D4869E9DE708E79B5DADCC09B1BC76F649731CFAF59A83FD8BAE4C749D66FA87A3810D4D62FFE826FA400C0F325D2BC0F3CA35F5847B82A2ACC7961745C823E4D863D54460AF792CE6F79B5C7A33B25C3AEA6CDE15A919B6367D781E9D44F61BF828672594A3E1D9EDD6DF179A81F27EAC05B936575D73E05C209
311
DDD2115CFB705DF9BBF3C911589B3640735E9E618FC9C36A7326C82B2205E244C55D56FDB9D5DC93CE958D4BF8174D2B3DA54CB3C09F2C2A6DFF73D23B2197355761AD421EC581284A7EF8DE2CE3497C0C804D49B41DFD6A7360844E5BEFFB495CFCDB97A4595911CDBA623274CE852B5E278AF0BEB1770E9D37CD977B2766
311
A7DED0E94B840E1E95E8C77DE5CB6354AF7871427C28ADBEEF7BA0A28E19DE9ACD75F379FE373EAE6DDDAE3834692F9C2B03B4FCA8FCA9ABE8EEEBEBB725B88A7C90941E850682CA04061A7DF0CE82ED49BFAFFD42C309818FAE14755CAAE78B0F73243ECCCAD7DF58FCB9CDFAE7A4D3E6671A613639130D056C8383C8F4FC
311
F4808C331E544DD26E4755D09EA05253B3049A1E32587CC25D72E073E2CD96D04A71BBCB0038FEC3F53D254199C3CDC67CD66640269431860225392B2CB3ECD0B4498AAE78BA1994246AE1EE78F2EDFB79F6C6CB6B5E279C4D373FBC21CB2698C9ACBBEB6A4BB6B39E16AB0E421CCBFC7654D81ED86022F9BB522146F9F477
311
2E2D0E4FA70120C95A85A417BF5078B232F4754363EB1750B2AC2148EB46B1EA72AD9B4D23ADCBC589D70106C3EC2ABEEED84DFE28E718C6C83502C28E9FDD3B09DA0A6F6F7B72B706A31C9E2A331EE70DA56A083D2177BFD63C55B11D8D949FAFCF90B23A1E24B9B5018B9A17E99F2890EC302F330FE7936E2C23F0D237EC
311
8916F5166AB84B62A21BB0B950146962D754F92CC2C8877BED8FC7B7B25726DD19545392570B3A2C66B58F027BEF412E552D12A588C4A3CC5C3193FCB3485EFFF700D0B9EEC077754A33DC1FB9E25AF814628F91DDFECB667D3F7690803F38D13F8AE39353523BB08FC6760144AFA2CE28236F65EDBB3D5F59A57D612B99E3
311
D7E5F8A851666BF9B5A6658EFC96EEB37A378ABB0EB3FDDF1303AF32C41BD1C8560745D7BD81066B0D6313359CF488563D3BA3F8E2185D1FAA3EBA1397C9D0E3DD232180A4DCADB6AF25DB3AC3CC26589C8239E66E81547BC7E2F328F9884764CA37EB5DBE390DFC03A5246B456A7C3684C4377D0EEF9A350680FA9A077E8B
311
2957B489E09AB1AD41316944C2254B5984830F691C93CAA767EECF976FA5647538830B5E63236A6F0365C1E0F3E327F24FE35EDDBD7360B0F7374837409F7A6311BECC12B7026D4FA1AE204FA3F5FE904B1F420C7A9044AE58E403E7C4848E7DA25DC9EDAC79DD756FAA26B9EA83ACE8A214A2612A22AFA19DAE7DBAC5F8CD
311
E1292A485F98DAC731A29FE01A3966E96BCB9FB5A4C8830E1B9AF0C54B87FBE221A097036E5D28D1F869F810C06A9BB0AC0612F69AEBAF893C6E7AD59460208BAB3A6B09CA4F6BDDAB8CF0D1F84B72487498395A70DCD754796E271099A567A55CF242BBED64696378BB6CF25EF0FCDB589F3A82F1116D010A9AB9FA435880
311
9EE0C973A2B4229BAA876A70B03AB49CBA7FBE71DB1832FFD32F9BF2C8E98075CACAFB36921235D0F552B6A67E94E094097A5D7DF681B40623DA535ADA7A9AD8E9A62407D7C9A5AE51D62A17A83A23728DE86BB56115804D3F2675F2C6B87541A0FC497BF0CA86420F558C9859EBE9FAD62747E323E3AADC03FDCDDFE7407B
311
09DA90B44E3185723C5381EAEF589765E2F7A099BA46695BAD60CEF3491B8A171F5F56444F7CE9455312C3498C74173AEA0214EC029833B34B650CBB5A5508D5091665309642791708ECF27CF11DB3D797D6CFE474453BD4BFADB768094B2147814D81C7CBAF8228DCAF5564B5891F5EF6A860EB2E323CB82AB868D8EA0488
311
80D63B0DE5341F1B3D53297B928A11E15F25E5148990F710747C3509ED14909C552EBE3973246FCE55D00564D8310BC3EBC5085D08D806799B77D6C57FDF5E55837F9E934F09C03C729271B64F12D0A9F9E938107CAF7BF1EC8CF1BB9B42363D33070F4CACB425E605DDB0A34A12BB936DE286B9887A4E2E558F0886498BFF
311
49C311D96C277CF6A9FC0D75AD0ECC5226D7E0E3572012E56D7FDE4410CEC7A6D0F997F225A2055B8B92E3956E875AE4993CB3D4C9063AF98FD45E1BAB165640A43439A2C9181A7C355B297C0A0CCFFAE19B6FA3C2BA238A885FBC98B8F6DAF4B94B97304878DF4D8BFF6A4AEDF79E90ED4E68F00CD7299F4E0D83E35601AF
311
0CBEF18C1E870E74758FA91F5131075004DB3CFCF09AE1DABC11957FD9808C92E8A678CE9DBE40DDA0E0D1D505AAFBCBA208232BFB6FB3704E8985E61ADE53DE74152F5C7DE74B1DEDCD37DC3E8FB30D7EBA8B9EFFC3606BF90B8D438279CB7709FC7C00D327F41817EEA71CD9E49FE9C8C9A81C70915D9F0F15958EC5AA4C
311
3BBFAF46986B90F188BDB24B89DE3C6F29EC3E6F66D84856EE96A35E657CA41B41EFD8DBFA16AD6E91439EA92B40B21C053249F51AE50EB0B24C770FFAF40DF12C8436366819C48E36547D4E7B72FE2BBF10828583057814A668BDF183F6B2E58DFB151103E56303E63D00F39C27C4661605DB644D19175D02E3F0241E8FC3
311
458D17AAAADB117CE9EEA690D0DB01E634878C04C2C9310B69FCAB831151E3AD293BEF6E46B0ABCECB50F5939B39C613D41E81FAE8D34CAE3C4566B761D37185FE864AC32FCB71AEF39DAA5BAB88609BB980CD2F07A8F941653B529567726E2B2A58D079DD57E1E5E31426CF184A04D7B03B985F276D47406AF276FE32E332
311
8BA866EB1FD39BEF57863A317634AA5FE467409B3873F5069EF0D71AF00AD189D17BA1974ECDB2D623E9E14086386A6AAB5807825C37B015BFE892AFD154920EC437EB945D958E18622E1E0FE2FA06557CE4BB9BBD05A2D40E774DA2B65473791E314B7D6C886820B2FCFE4AA272B3B8B15E7344A145E8AF919B5454D89D36
311
D413E87211186BF6F645E5EC94DCCE8E1C799022E4EC9BC86D7A0F2AFB1FC4B2CE48F84B3F49ECE65BAD24CADCC07EFF39AB06BE9E6B27A059938EA7208838455383DDBCFCD967DDE4650EF92A14FF933C975DB20BD7FEEBC4487576485963D757D16340D9599FEB362F775F38CA4185A86F74B629C81B133644A3B18FD056
311
E997E0734F9BE26D11C0AAFC669E2AC9FC41D281F8B2E1C35AE27BCE05F3DA295488096688719D974DF1B5D182DB7792288697F8763CFB43562C1CDEE11C4AABD5C22B6E33F6F389CFC3477C5919DC0D533F8A7A1846B7ADB60ABDC26C43D0CFC8910B7C15EE22675BD02702ED39DB77A87A192CA7A543E6205B979B9F5A6B
311
512A3CA799E198B2D5797C0AF8D1D872CA455D4D431A7879D4DD76110B5FF7F4176B54477A9EB5E4A5D11214FDA585F0382751D8E2582BA5D2075053298FEB8F1537304E32CB22C2E2B693DC0A760B1DFCA751BDC445AFDCBB12820ED85F6D5298933C7EF1211E9E057684056CDA3FEF3BB6052355E162DF27C59E965A8DDB
311
7F9437EB72CDDA3A090DE65A5B2F50326247B7EC67B73ACC7047FC9B353D6EE990F772207C6EC52B39DC2F3C0754821DAB559F7C1809C7D0DD5B0499D0442E0A6E391B3D5DB46D11E731E6794EC77523FBDAA242ED67F9FA1FB684255671F63C9BCFE6E7E896D51001A6113EF2298BA494E0B0980D1FA5B9D60796554C0225
311
6B1E0345FB7C6186B6A19D2DCA270416262845FA4F42DB5D9B0A0B6F07FCA2E56C242522E001E0CEB734AF310FC8BFB57E38E03AACE93B3326A2197891E68452B26A6307FDABFEE0223D3C03C3C73D2D5BC054C8311F12004CAE488E5C29287F8156A2CAA4AD0D7BE6B97264E4139F437CE73ADF52E5134C52B819777C18B3
311
23A5924E4F67AFD13B1CDC3A61793A79FAF5C0CEB718E441071E797C6DCCB9EFCF7E4A1E9F3DF3C2F9C9E8294E9586868788C972857FB0556D7A26941A7EEB9B580AD78EC40B85DC906B4120A563CA3B87797ED612D3B035962BB75F6515A393F4CB057F564CDF54F2E5A024514E6A1F901DB80C7E70B1FC05E356A7E72FAB
311
F4775B3E3FB8F70A2A8E7B6A94542BB304157978CCC999E707A29CC795E67A59CC546A5D47B368954CA7B6E75EC9E1F6FC73CE3B4F71F8CB1A6B15923D61EAAEB14626AAA9D04A26EB9C66CD1BE86CA31A5D8703DE04CD1EBCE4F5CCB62F93909AD11E55799A781A956ED27D3E738F4538CB04ADABC7DAEF20BC35BA6A90BC
311
C1DC61BA05F20D8832FFB9BC9B15E2DB838A0AFBB7E0C82A562127E0446894F427794C3037186F622BF24DE1B00AA10A23BFA47B2A180D6DA5AD6F7326FEB8C100C2D7142EB2A0B2A9D1008A09BA343D70E054AB69E2A7EDB783CBD92537FAF4A44D1296AC2792729104B3276C276C951D0CF3CF3F1E6B017720A7B8505A5F
311
F9589365979678C36F1BAF759EAF57C60F1FF5FE9DCF5F8E764FF25A2D06CF25117A8FED51884C13B2B750DB0E4F5E3D64124FCF11F0AD8F1CC3B3DA4B38ED22BF1CB2585EE6BFEBBA63FBFD44F9537B9B37BDD6B358720F98A8125AED4349CCFEB0E135F19E208A04CA7E2B10711185D72E381F448036EF57C9F874E54A97
311
1CA37A639E986AC0226DC5AA00D5B14FEA9192234B3DE617814FC221C92F33F1D392F297731B567FD98FD91D989379AF567A65B8ADF177591DB90FBEA99BF4ED11B16E50A0AB1DBF1156D034BBE04D69D08F939D8E92BF525A1DDAFF80ECBC95D8F45D3FDD289FD23F7D8B452F8EBB34EC082DEEE68E18EDDF072060FAD2AB
311
1504DD4879BF67099FC58F6E9DEFBF645D16334A3E9A127C6F1AF6132CF287E433B43A0EE93812B4AA0B194E03EE3FF91EF9C6ED0074A2F6EB18A96A7C9890B1FCDA1F2095E944DB911ED54C60DF16FB74C8CE9BDC7C54C4F14078CF73C2FFF1F1BBCCD7CF64F71407EA1683DBC410D226627F66E509060D5C0AFD611DE681
311
D509DB8DD12FB1265B03C6F5C55FF4C30BD94187FF692B4F152982502F193098A789526A038AB529A52BC0DC4FB6285CBAC10A8B8DB75DCD9BDABBB221E27D1F8DA9F5EE5926A1C8AA9BA9BC09239C6A7F12914EA3B59EFF7AAEC3FFCCE56F1C5C2980AD072793527565E774F4631DB178CEEC691B1F367BEA0CF2907E1D6B
311
854D527065979DDEF002D8B2ACEA7CE21AE297737EDE1D45B31233B73FEA35BCFDD0B09721FDBAF6432681F2FD10C3E9EFB246FD6E854B344ACC9D8A0EEF876A7314B49B6A499FC650B099D650DBFEC7638ADFD245E2B7839DA5AC5F7D5623FC0ECEEC8653FC9B2BDD1AD4D00A566FBA7186DD3C9CD26512551637498CADB9
311
50FEC71ADB9A5524285DE328B8EC7EC75D2345AEC6A27C42AF6D9B92155315C80DBFCABBB7DA0FAE425C4FB896B15C9BFAC4FE67DF5A23D30C93DA4D8F36FB15D100050DA6062E22AEC5F4DAC4F6FEEF97AE05DE63C6D38F9E068A20BC5E3B6BCD75320C5090924E7F93640A7735B1A43451C2D91EE62C6238B797349E5989
311
0AF3A520DF4A87095F3ABEC2E61F0593416CE46CDCBE0E00E2523FCCD04408588B5B6C9DB6459C786CE378770B54F51DA3A5E1DF2A3349BEAAC234A6CF8993B598B3B25B4B113E353A4D750FA7534749430F3EBF2512E7EA3FD43C6AB9A1F765A58463B306721A15D224FAFE8C6F5E3432D57EE697DA0DD5A9D4866A8BCCAA
311
A9DFF1F06047851408FEC060471D0E3EB86BFAF46E4B5E60311DC3E3CEA147C75CF971BE74689507154FF2D2E92F15CDB2B9182B11459FD8ACAC5A85F174BC94A7F4EE4C4F5CAFA7C02E37BF0BC77B7DCD0C047BC316F562A01A441AFA7931CC84A28CB9F4AA367EB515778F29BFE61195FA671F4352E5E46E3A64773F1F76
311
EE5EB36D7BCE9BCEAD837A4D77F8DB8C92AEEF6711920D7C7D0F76B0FD0EB7AB83724CD35BCA7D36DDDF5FBB7FF6F04A91F3E2BB3B8F1A43CD659639507FF6331C5F697BCC782AE57D757A27D97F1AB9E0AEDB43F92F1B2AACDF5FEC8ADBAF9F814E2027003BA2F9E144B1938A7A04050AE5D953B82C45619165C813A10E76
311
DD6906B3C16438064D14CDA713AEC420034613E1AC7241904A49FBF87409AFB1FCB9B72FE7933A87D8FBEDACECE4EDCF6A4FE9FB94D5DEB74FAB7CFEAE17EE965DF980DCCA2D04134994F9A2E94D2265DA4FE6AA7B7AC15FACAC2B5ABBCD7DFF542C5314FDAB2E1B9D8B65220B8E2B638BE008E8DCA22678C820C5053664D1
311
5E89F2D735B51A84955E81A443545E9FF787BE0FA700A76D136C27DA179A7C6E8939E01BE756E19CB292798063D8B97F44E8A27BCF3A614FEB8BE974A718E86F7EC99B53CA35FA24F61F2B07266684623A3D4CF073E511F3A10A8FDAFAF0078C577F4DF9D339FE7862E5FA47CF4344209E5BF76D783B1B48E152AD281B15FC
311
B934DCDA49CEC5706B1EE8B460F435324A5CAD154725E21AB8044B75A557A79F6C807B9340AA3D92503E866F4274412926C8C504E4D5EF8C0E68DD0B028781A6B4054F11CF18941F101C57CCC796773ABC8DED9CD91FE5788806C05E548895354AEAC96546D55B0E94A59F148D061F42AA398D822CDECA4CDE79E13469BDCC
311
44FDC990F366BA5978C15F97ED80CBFD73B0CD9B8B83A4F6845BDFBFAF034019473FB9A63BD55D3A4A7284757071574029A4D016DCCBE95DD679EF3C4880BF169422F8C89B68A988D2B13793CAED4F74DE7486C72DC94DF46B8E93D8E02EFCB1FF9B3BA10C8AE7F653DF94F4AF466CDDCEF5776687F7C4C14B63E4EED1719D
311
C2EC482D7DBCC7AE518CDE3D5FF86D39000EC3673C0044E1D308BF05F74D1B5F033A7D1BE7F74BC55BBE3E4A20F920946CA0271EB17BD2B80E5660ACB8A29A79F5E4BBA49D4D945B6EEF4A7EFEAA65E5555BBB57A7E15D2F83C69F30BBB978D2B39F1F26FC097424D39BB33CA3D87ABF64E307938B685BAD44F71556A30B7E
311
712CA4FE600613C3E554B69ADE949A7CFE214DF1FFF05CB82151EC6FC31950239F94CF7AD39DC473F6EA356E5EC2C4EFA04383CEFE985A127484366FBEE3C0EC4FEA363E4F6632AE781392FD45D67B63FB8DF70E82734F431FD3443172A0E30A83D60982D55FA6A2CF86DBA8382502ACC6CDEF3B907982EED1160E14863FA2
311
42F9757347E1544275CCDCF71ECD5F8621CBEA326B8BA884AD7F825781923E66971F04010D574C541D8427A438A37EEF8AF88240EED7362C953F5A81DE2D56109CDE2524EA0F5D2F87308C0C47BD97AD605878AB8589E17CA83930CB5E0DCCD75853D68B1AB136594926DE426C367428E9334AFAFF90ECE221BB5DC9E5BB53
311
D2CDEF954EAA9CD814F0E5725F1965DD458E5F8487683AD86B9D0076BE3EE91EB1CECC5331A67A3F79D8B27587C12EC2A6A70474749F27B4C0BBAFB94B34189E88DC18964BE4121B9137FD516C7755356E50D6714E31ACD222621EBBCD1CFF81D87479056A9DA0E0B8EA19D24CF937DA89F78E8650CCBDC110AAB6C4E46DCB
311
FD0446BA9E2060E81F314AC2031E88135E5476AC0160EF5C0DD2EEF1B8B5CB2D198BE9A554A9093B5F7D7E4B5407DDFCA1D9C152FD97F55BFFFDFE802954DFEC8995B983E28AC92F1971E28F531DC407A1280EB125F64A72E617EFB27DFBCEDCDA2D6F2BDADA36873EE46B9BE1782998C63DA7182BC383FB6FD15DA472B175
311
D7E8B4FC88F38D6E07FEAA3FA3CBB8F6B449ECF14D2175E5C5CCA3A42ABF24CA6C9395AF74535F4DDB38CB84F56614B0FD32D7E19CA5CF988DB4449C40E23DF2B16772594554579094450F56F253CD25EA7F77366FB1CFE79696C428BB64D5A41E986189427E5E4D7E2DAE3D5BB4972B3DC44EAABDDDD63A2264ECFA5C786E
311
B0EE1FDC5BE34FA0F08376869FD1E61EA06CAE15191135445EE8F0394161C3266A596AA035572BB0C8876180D8B9C77D307DF9DCDF7365ABDA6F3A2366436457A4DFC1F259666569A9E4A79C817BDD5610E5200FCE894A358EC72858D50EF67545DA81C6FACE3D457BAF70367E1E6BDD9A952FB4F56247F58F523B97E64024
311
6051A72F79BE42FFA0B3187F63097F91C48B868586F714B0EBD5A00A8412C1236E1298F60C72BE6C96B82B404CADAA304AE9F303176B14BA53FBC2D5E86377E35542019E24D97B96A49B2C0E5006E7795954DEAF5DA58958839043C6C70BD3B1B33B6DC5C31316D8A6923F142E26F6711A2258AF977DDF1F970ECC4F1F2B43
311
4B96D81BEB6E89BF3BBB3C7C8CC80505070723D6D7D7D3C8CA27CA164A26024FED94B12A86031867241DA53D929636DA600F050BC40CE48B8BA03D69224720DEE2ED2127390BDF5E6EA64527BBD4C4C63FA76BB801FEEC0E61218EC98A8A86CD8313781617877E66692839B9468CF4DB8E50A73986E558E309C0D6F676F921
311
BE02F1185454DC75B111572FF9D27D85EA14C05AD7271225B391C4275659CA4A43759D0BA44639BE4C30A84DB7F67A41399FB95CBF923B1B1672ABC807C1590557FB18D811983FA97F5E609516D62281D38B1281F68FC75528C35E4CD7DF0F7DBB5E5DD69C414EBEA2F4A5B241B996BA77AE6C772E367408C633EA3E438B68
311
563EA8BE7667F3A4C4FDEEA52ABD78A2820F443B7914A15F180018D231E64519C56A12F6CA7C8DAE18F06F6B769DBF92329EF6A5D18FBCE600F36BD8E8198DE5CDAA96181F3A756EBA5501CEE58F497EA4F418A2B82565B9BCC611713C0B708CCA1F398B78C5F7D03B3437CC18F13061F55C7BEDADD5ACB1DB0E36D3CE47FF
311
6EA1A563A57E9649EA5D14D1A50EAA457463381C073777EF1600607BAF6428A7DDC079D47A204EF1E1F1F0589FB054D45E02CE623B3823C317C601E589E22B1E88B448524B86A82828E32345EC18AE17214B42F8C41C6D428016D9BA31DDCB47572561E5A402E5BA4FCE55F78AF7268524AA04130F3A20BA5D1E9F9948EA48
311
FC8F5314FDB35E21898198060034ACE5E3E2BBCA34092518F275190AF65F45867FF0900AA4B81F25427414C372BF51DC29AA855C5428EE1EEDD6B849AD60F6E73475C2D2523F8A2772C840A478DED18A8C5C91B085F255DC4F54EA7AA8947354FD17ECF8FB3B4A0DE7B483CAF3A1165EE05BBA413E5C1FEF3DE1D6B8F2F3F3
311
251C17D9FCAB48A9AAF63AC773A0E413BBC46A9ADF84A566FC920E4D8C52C9769EE3301CADEEEDD92B312E02E2A7E35B7F1E7D203FE5A7D75578B06E99D0E46FFADB8FDA17ED8880390DA29094202D6F645F76F6F96409CDA05495A96E84B04A00D1A6C6C81D7F3DE9376E828CCF144EE50E364ACCE7237EA0BFB5607ED1AC
311
3CFE73794E5B61739D14DF1743441B1AC98F00ECEDE9E7301FA29755FBEFA68C91EF2B314CF510537EF1ABFC9A762496280B546F5EDAAF8A5B387D469FC9A878A92828C88608453ACEC6094DCA54111E7AD5B2663DFE2DD151B7F123B9F4FEF8EE36AB125FD7AD52A59B1B765B3E3F73E3F73DEA93875004D2AFFE3CDE9493
311
B87A9904DD052028949041A91DC0E1BA47BA714343FD5B25E0A6A09503AFC17C790058A836A324FE31D7893512E28230332F153181C1E018E1124EBE1BA262AA428A518237D1EA7275E48C5C561BD19ED6912EDD8367DA0F31E40EEAE9683DA9257525AEA7B632B97119E17145A90231768A4F3B9120FF32E8319B015E3CBE
311
26F1A754177D8185345817C096B0CE443A955D13AC15E1FB5DEEA0239EC32A3C92241A237B0B02FFCB4F93CF2B02570C8D192E2F2A68CEEB42F12E6F8CEEFF46C251E22B4341C56FB08CCE550E7A9D6F4D6564B9EA52A83D5BF2C6E03FA19D2775E15A8A7ACF30A13C259EE7F5EF2AC3BA354F1500E1A07FC63FB4686E2F12
311
EC69719F9ECF5FE3F35598DF2CE944008CE78F0911BA5BE5D0A34E0098FF038669C26030BA9B300303039852A8F6F496341737CA7E0D2E3AAA36DE0A70AA7D9CA0D54D9AD84B18A44C9E625475E1C97B93BEBB38DCE7D227E67A2D00F531436136355F243D1FC0D712C5765754FA22FCFFAE97919161F46D6E61ACB37D8377
311
7B385889770B50765B127768443A5C4D3A4E35A3151111F146B7CA116F918A049F1C272F2CD7976C69A0068773451659A97E0F4A08FE604C3FF6CE7385DB19F4D3ABC8A0D80DA8A42096AC377DB49382B36E270B6FA7570188B4B7D1DDDDA82ACA487CCA5D38BD3BD039ADBAFA4ACFF27809239B722081E2EB9F145320553D
311
183F28471C388BC8814E5045676767AB58A8E72D1CED2CA731379515D2E533E4CF0B39DFC625F97AC4836831A4DE330E87A8126FA17EBE583D614E71E22A8DBF2825599743E0640037303E8E1B1E8EA4E1ABFA4F62907B5E4E0E5DCFDAB417C36C6848A2B8D15F1E505434C0707E16B1CFC2A1C36A42BBF55734F8F4301DDC
311
2A5110CEE8C0747F69519265012A2174BF4E955ECD4FDE095A3ABC70536B7AD0B9D7892F81287D667C108703C9B66A221E9A0929D030008F77FF6F5D2108EF5706FC87A3069B976F7C9FC3239D13D283CDEA83597461079FEEE049B0F392889898B7D87D31F8D60ED7B56B91823A8E4EDDB36C6172ECEE42BD42B12CD67994
311
FA0F0DFAE9389356F4CD4425A4B8AA55CBF7ECD585C6A2C2316791E43D5C06841ADBB226A87FD61515FFBB0167B74E56BD7F3E90A57A97FEDCBDF483A0D6699A8C0849CAEB4947FAA90D8E332D9DEBD9F4738C37DA0CAF9CF3DAA68BCB67C420459C7A64498D6E848E5CADE92BB6901F607AA331104A67F7CD650EE169B1DA
311
E94D2C31C2F993632259B6957E246EFE4C5481107B07118607700040E5812A2A2A38DA0076875258C753F60E0F2662C748EDD5F3F3686B8FC3BD6FE631ECCAA1E8B1C1E565AD117E54893E79F4672E32F9E46B2A183DFDCF3EECB4D4D077DBEA0DA254D256045109670050129E9B9B1A9E4A11344D61497A99277809515151
311
0C4BB7EF2009B63AA4360635312E4CF668B7E0D3D85A8688E2BD83B569439892ADB63461930D428E0DE42E4AC57CE48DA5CC1449530D8BD3D6A0F08DF20C8E8F570F2CFFFCEA286E30969B4654D498A58D9DA782E19FE3F002181838925592C4A1EF0B332D88B61A92C644547BED490D3A42CFFAB70E36D961F694F6307F72
311
FF15A1C79D5B1B5CEFD353D9E2B52566DEC8F8F09CB3E8359C0F68EBBB7898243E34E12A015B2685AB303C04D3A9E00671FF3DFF0A184E4A2ABEB2B666AF5B3A209C73D8EF29DCDB069C9F391EEE9DD0F74C7BCDE16F8F02E3B8816122BBEB50665775B600549D8BB33A54A6BF940C028118BC6878C79958D6784F9DEAA6E2
311
6748386FFAF8D0D0101E2847B6563F5D8DC1D78F787BE00E2C941AE12148D4A81599FE8F68D4DA5CDED75530ADE138240300EE13B0FC13A1687FED6774662C05A2B7DFB186732F0D7A93545D8B0A6390AE5054D9CB582DA846D7A061B3358B45E2B52DDE63E114397EDB7E09233A579155D795BE76102CF277F4DF8B188C4F
311
2879BEAE3C08347124BF9ED23B128259FE107D31E34A652F090B30B39E0D9AF917B76A2806135621A8A60681F16AF216514BBD02711585B5B1AE823F4B2D0369EA5B6BCB863072727FFC871CA6C9AB79A814D989057E9470A3D238BC87CBB4A0EA49AFE2B86F22E499793CAA9047080450166BDC357524561E258C77CB697F
311
1ABB32562CF87C3B7AA12F911EF19FB3E5C02222E887D08202A60A17151F5E053A86B437771088B4FEE14D652C43E8D939995D34545E12E2FF93D4E366EAD25F10CB7DED141563C3D0C447AF06078A91135FD4B9611583CB4BF3BD167F2399CEAB0E0100F8FFC305F00F1711717173138B4B48C83022295DE657EFEDD97F23
311
8ECA80F528AFB4F8D67AD4E2594B9A3AA86D7487EFC313BA95745C186F0CDD84CC12DC9CB0424B42203D351FD9C0A3AF10CC7F388E0329279087386421F194F4A29464C1DEF7EF8BE515E4A199DCD5B909342598D8FE6A231F71336248D5CEC5454455C7BE383B3BC7B260FED27F703FDC39A170F3827239102F59D4DEE7FE
311
F82EAA1A5E4BA94DCC4CC44E7E2EDE20F24244E4454369D2E87C3F823F193FD4FD27E1C23984B01898D15ABC20711A8A558054951A6AE280096BA36CBA439603B7B0B4C45F248C14B2383B4B5CD8ECECE4FF859AD4A6CA2326D020EF090F4041D28DB66E5256B56232CC52829DE8060BAE6BBF37D4B7469B822454FE93210A
311
3E8D15E69FFCF01123222611C51C4FD0A041A0CFA2471CF6BE38D2B20FA4C3525B5B8B586759475CF80ADFE67A284AC24651E52B8E683D24C2622642F27E7C3C22783BCF63648BC398BD6CD0D9C97E7E7E3EACB6126DB7A6C1FD9F1031302EE67ED96F22B77C7CA0239BB324207559B105E4693EB26EC46182A92C9C0DBD24
311
F29B31C5C5AC1F84300E0E17CEEAC15F5736FA4A98971E2F1423BFCD68D4BBD5F86E74B40A369F39507C88FCDB35D2DD8DEBEA4AF999E23CF2816D204200DF6E611781B9884C1AC8888B4DE397320472959434323A5A36B22A8E1F721A270DF3BD65E4A31C11FF048AFB0D8B7B6881423793963A23CFCE935FC189ED36FAE3
311
5C46DA3574C979E4394BE52084F3081837BE033396D2EBD80F1F691B273F660D2B32FA27A33B1DE4ADA5F0FA4651511102DFA410DDA86E065272CA314D5249DF91B06BB92807B28EFD54F08F7B525252782CD276DD02E6B0319B13DF87B1F6361AD6B28FC0D711CF445429B9E5A433CD493051C49A9E03DDB1B147D8802535
311
14A5DED88009018620EE229101C041950E2D8AA8E1F5F5438E0C0C0C60EEDEE9E3E0C051948C69F84BB7B2A48A1F3C8EB9E6864687F4F4F6F6E2FA87608ADAF9C5E117B7C1A737E710769DA1D15ECE6A84502AA855398712D5FB51BE92E4EF824969CE18278798AC303C2C7980DD2500ADF8FB1E6D6C2FAAFF998717892333
311
4A244758BAA01A9A1B70FA5097D01E1CC2A58DAD0EC94CE6430AA9B0C10D75E3C6BAC670EFBADEE1607739CE0FC18A2587E3EC3058562014C64219C69BC269082D5C2F4A659278D585755912176D78A1B641719C2A394CED495A1AC5D583FD2F5EDD93308EA7EAE8A6DD396598BDBD3D4CFED62D18A5BDFDE0DD5C80D1A89B
311
A62697B131AE7CE9A6594138582F1B37D68F1749AC7CB67A70695D48A4A056AC1FBD4E82358CEAE38F54B95A9016F9000F9879C0D9D131768635CA798895F27D6F1614F11F2838A83611AA51C9A3DDB539D42979C29F10465655C17BEC3E2760B80DCBF609198C7B171A531905F3EC218D696025975E986C6B4C6666667872
311
71F202805577DD5A3EF0CAFAF91B62DC4B2DB4217A7606282F31D8DDBC290593BAA93EA6353AFA9939B877978481E15CFC9F2755CDC00C538F63A4BA3E80AE009B73CA0185687D339A507D165B74290D6EE46D5C58148F020C3668ABE9EF2F7549170DC80DB41FFC1D678FF19AEB10C7133832B104B80F691B3138F97A92D2
311
6E551F1F110400D45AC71A9B9AC41A1A1B1DAEED0B0810638EFFB511D46B121C6FEA0F38CD00E03CFFEB9713FE1F9C263E4DDEC160D0497FA9A132BA608584057FB15380825DE6C7FC3C667EE947D488A09898D8E939C4953BF4EC9836344D2CC6B2971B2A21A572B06096F4982D2CC7232D46E8EA69DC83722E267754D777
311
F97F96D5DA74E1E75178084D0E70F12AD33E5F71EF2AFA599B2BEBF60A5BE475F444F240CBFE8143C334E7ED9150FEEFEF7EB020C4DBED388DD1D6A167A76F3CBF119B578AE8CFA7736ACAFA4440A1C47185638A0D2F3EB5BDDEFDA958FB13CE4AA4923D5BF840392D45544329525749734866684BF7F8D9D54D892E19BCA9
311
F829A0F8BFCBEEA6CFDFC61D74EA1A645ED7A1FF241739F15694BD835B66FEC5677E40FE69BD3F91AE402F036537218A401CB0828604AD189E575015C6F3F6BBC8AC79CF6C70653847254B31551EFCBEB5978B9DB85D58D0FA41A9DFE9C624834AA04949D24B5AE6D299E072D152D12097920F14AA92C31C3B97E28B6C2E6E
311
9C23D63043ECBBC0A60FDF5BD0C33C127EA8A3308B8B6AFFEB28B4455BF6E7AF4FC6222728357EB8E46E85053E6A8843AB23295BF838ABDA94658FEF3F832F147046B4ACD6F7D48E8FCC9618582961C898D1C7A253C91BFECBDA6BA18A1FCF70755DCCEE2222F41B76D23CA98D0CB3D95F0CF66D57FFF65E2A90F5DF40FC31
311
87621E981BD0BC1D992787212688976B94A8F0C6EF646624B570B78E068826F87CE27041A95C9A4871FF65CC17FCB1639629AD6A9517000D63AC231F3D741CB8430777E7ECF80CE7A3F73C0F162F7E56AA71F4DA80A33CD6ACEE78E2C11FAC03DAFCE929B106F8F6B3ED2DC71FF994BD9CEF4E9A94896EF1B6E2B7B4978168
311
BCF0847A3D2A4F1B0500B926E634B174548E9FBAD27153FB5FC36799B1E6C7C38A94E1F9E996796D7B485E635D5287A2AE76FBD11A341DB3F8F810385BB7296391973DC6C37C452A9305AEBBE0CDB6C566DB59FE60C8E94B1FD090354BF51439FFD1B48D725228FFA88C84F686F547107A7A235665A4593B7C34D748C1AC8D
311
56DD5DA861EEFBADDECBBD65117E65851F90351AEB65F0EFCFF4BCFEF24CB7A5879699FAC437A7AF9099186CF006BB923A59E37D7A36A29FD8D2CBB914A5E9D0A8FD212FBF796AE9A67958FF1D5D8B85F78F96219D4714EB919929241B6C018AAE0C02069F8D919961EC5DDFBFB7573E3AC8E08BFB7C8534BE6DE045B3CD63
311
DBD71F7638BA2309CAE398EA3A7D8F98BBBC7AEB367EFA5CFA27A9F8F2F52FE878058E6209C026453F8E7E8A237DFC389E9590F6059B397CFD65183BBF936E86896612A5B5FEE49DAC8455D026218AFEBEC12B3523A45B57B82C9C97E02ACFA1184DB18E48CF615DBF39C3CC6F0B4AE6BBEEA2E39D944E290302FA3DE33FA7
311
E40296E2EF7BF1CD855BBECFAD0FD622BEE9746FC4FDFDE545AE6E3BC234CADF83A0FB76DFB145BF3828AE3436368AC24989454F8FF70A177672C711CAA1A76107218CF948CA01F873520E7A2B118EBB161ABAD432932029628B6761590C98AB590C8C8C79798CE9F715BA696E839E9131A4BB68BE923F1747FBFF165331FF
311
DD4D05997ACD168F12CA75348DAC04C7F509FE83898A8B421181AF492861CE81E4A2DD0A30850CFA95E05F097FF70F9E777310D584A75BA7018922E271DAB1D785671157685B7D383D3E074DDB4F1E44EF04B07BAAC75A062077C54B9752C738C9D804D402E02851F3F89605AF189738C18C021D2139EAF72513824E10DDD3
311
047BACC8521ED7E98B257D1166903B1B08FA6F918FD7E162913FEC7D0EF4787E29C35FBA8C6E2C9C20E9AB30AE42CA2A01A090E7D010C1B5BF9CEE2A304BF3A987FB40D836979B79E18D70F257DA61E808472DD85B82761825779D6B90CAEB0F23360C6F80A7D7D77545E95B3DFF0CF96A827F9B5BCECD2C9698718417EF80
311
FEEDEE938AFF55859D0D540B7FE09435583A6F04874A0C7E8CF234DF4879722000167F5872CEC6BF3EF7E5A8CC8121E6A359227C8A29C95212F9F735BC72A887D56B8F309FC525BFB4FD767AAEC4AEFF249CFBBD2DE1AB9969A6155C7D8DABC307E47324C1F916C7BCFF40ABA5644E9FFB9238D19ADADA49D9610F01ABBA57
311
E4DFCBDCCBB2B93C8953206C91DE01B0E2651A6D6C31721915B31F7B7CBCE55466F6D70402788FA91D73BE4ADCBA99A35F17D6B83383704917D6833F0FA3CD45C926ADB8BC17999A4A0AFBCE2541F7B8CF4C2F5FBA611B3E626D64407CB32C122DFF4EF8674D6EDBB86C8F7C6A16D50FA685E2CCA34F8F7D1D8265BB0042E9
311
D7F1F666F7BE5FAA5184DF58E12122A42EF02F461B3F369AC746F96528AD208512AB56844CF75B97F352DF7995024FB02855385854F3798670D01CAC771AC3E1889EC25F61A20C1F8CAB46898817F9C47E2CDA1F286BF2F358298709FE567C91133E2638C8B53975E753EA8BFD3578B5F7186B7BF084EBA3F77BAC3132A577
311
9902EC22AF2D2E79F42D324E083386DAEE9810D1B44A5DAA54513C7A71E52A4AB9257D975B621308FE4D2141CC3DCFE946C154A3C1DFCCA7629EC69ACFA831634ADDA93C0388D2A9A2DDAFCF957C6995BCE7FBB6DC4EBAE79E63EB08E9A25F52F67076F7093CA545CA3053B5BF576DEAD4E0017143C5F759F32B2D6F145B52
311
B67B48909B7C7FCA6586EE385A2189C16932CB6DDFD9152AE317C430492A578ED27B72D85D40C7C93C097939E1B50F4D67F05334FE9DC362C30B7FF561B95259138ECFD9274C8D695C31B14D4EAA9F3D7FA8DDF652F8C5DEFA23284C799B7D94416DEE81E05A866302DC70192A5368EA65E1CED8BF107A1E2D3119A71E85DC
311
1A7B0C1E93274CE04DD0F2ABC8AC7C987FDB002B6F81757B43502EF7A0D92E416494FAEEA4C9C090CD9557AA4D532F4996A272B94355C5A0E4974EEA9627476F30809B94D8D8D860062E02204643BEC7D0438AF800FC7E2B26955D595421E83C69E1A07E0E3122285835F014AD538188CF9737CE76D464A353FA55A001AB25
311
26B84E985083693BC76FE211CA1D000679C889E3C009832C87E1AC2EDD05C302557422DF0800E316FCAC86978A371F025A6C7DAA9F333E7BD160403A1A06EA75AA9888FF01504B0304140006080800247BEE5428BB58AF800100009E0500003D00000030314436393034332D454236462D344146372D394232342D36444542
311
41313744353533332F536368656D61732F436F6D6D6F6E536368656D612E786D6CBD544D4FC23018BEFB2B96DE15493C78601010A34B880709DEDFB52FD0D8B54BD70DF6EFED3AC0B12E6442E2716BFB3CEFF3D18E26FB440405EA8C2B1992E1C323095052C5B8DC842437EBFB673219DF8DA659866649B798C078B48AE641
311
0122242F2A4994AC7F93815DF85C049C8564CA0A901499DD886B2EB9B1E02448F358701A9235880C49A0119892A20C89D1B9FD768815CAD268CB5E0355B40B1E47F3E37A2020464BED06AA57CE8FCC20C3C3446D46761A2632A8C1283D07031EFF2AE7CCB1BFEEE916E406DFAC8E36FFD99A9D60A6944090EEDC3B670C7DC1
311
3DE86B6B2C5C240D6E503BB85ACD579D513F1B9F9A69DC9CC22AFA80C426D40AF0B21EA168559156B6276F0F726A6BFF04DCD513A87A62CAD41FB24FCB2858B3952E3D852084DA25B9303C15687973CC8E8AAE11DF2836C38C6A9E765E8C1BA1BFB1DC29CDFE518C8B5A7655A4ED7E77291ABEB80DBD82EC866ADE1B8D05AF
311
9E35CF09D7A061F38A986D9EC412B8F0F65E5D81534D9B231D1E5A8FE577A241F3A5FD01504B0304140006080800247BEE54E336299B9F040000341300003E00000030314436393034332D454236462D344146372D394232342D3644454241313744353533332F536368656D61732F47656E65726963536368656D612E786D
311
6CD5585B6FE238147EDF5F61E5BD1498E9A895A02398AA5D1E2A5665BAAF96710C78D6B9C87168D95FBFE7F81242134A968E469A4855437C72AEDFB965F4F53551642B7421B3741C0D7AFD88889467B14CD7E3A834AB8BEBE8EBED1FA3495108B3E01B91B0DBD1F3EC8E6C991A470F22155A72F73CBABC1D4D5921DCD19348
311
63A11F990102A6F61466977B8AC49FB13C174CB3940BE4504A22E3713489B7F82406516225536940BD88E4E552493E8E564C1522225AB0384BD56E1C195DC26FAB13882C2EBD62E1FF9E5B0FCC453132C99548446A1872B62267078F1EF14C3DB1DD1952DDBBB384AD456779F387C51992E0ADCE12FED2622BC5CB1952FC9B
311
DF3295E9206E961AB116DA7ACE45F76F07A26EFC3FD762FD7362FC3C0BAA4DB34C09E682CA5167BADCD16CF94370E331E2F1A3D852008AAD5D64BA2373478338AEB1583B905396D158182655E1B938D07926CF007CC7E85E6709999B0D3827C0BF406BEF55C68CF5579DA32C8C85BE03EFE788787E8FEC95DC85C3E31A6156
311
58D81F9A34499612004CE69CAB12531B15A887ACA642C110F8C1A8C1974A85853F407794695C905C688E69B116550ACA946B9B4785FC179E0E229240B62665328E86D5BD2C800CF5D80289F35AC25E3DD51508F4BF9A74A0F5A557BB3D284BC6FF59312E282F956A75C5D453906F48D11A876599E49425602400842995BDF0
311
2C4D012E226658F78A710416AC552831FDDEF0E6F0BABEBEA9DC36718CCEF4DAC5A0DF871AECBDD8F448F015F8DA113A473609D1751672B723874B2CAB21ECD6E284E51DCC7D1A47A00F60EC21DC4CC3CDC406DC03760A4E6C772F2F4D561A9AE58C4B03F5B4838701472139EDCB36819A66C472B52AB1139C648956F43E0D
311
AEC067B56B0818F5961D3D446B8F1E1E78C0EAD7EE02AF2895D813E88AC5014A7B436DBB20F778D40A1D9737EFE45B47D49CC8360F9966B15AABAC802C1005548A93EE469F5D55317CD8BF0AA86CABADB2A009D4D6F60CFE53AE370AFE8C45415B15D362A5A038E766E34B00F8C2E3E7098E2093B1C96349FDAEA158903B4B
311
DAEA665F473FECE72186E3BDDCACCADA31839CD6D4FA7D47DF5469006ED340EBE71DF960DDEE88A3E17557039B58C278A1795BA8079419DA8FC5BA1BAA1A66238BF69C7B2BE4E6274839122B7D00BE8B7D52CF61B2D63216046008C8B330FC10F8907787DEF061F47965BBA02FD8F53BA12F9827614979F53563D0BB1AD67A
311
03DC0E00E2FB2CF3EFB457E70E65A3D7C78E7D700DBB45132AE9BBA5E468CD861408961AD8B00A55C2FCC677F4456039FD9F1907A5B3E2D0EE845FDBA2DAFA88C64195671AD6D282DA2E45B1F50A0D632B0D0B6718757DCC7C84A70A3656F222CDA6DBF07E204AB358961D1BE31E53A82C2C0D56DBF61A5608B5A252A932A1
311
DC6E32462430853353EA30417C8199A662E946A4EF352268B8CDB9A9C6762515ACE8E09BBC031C608A02C4BA89C9DDC074E46E0E26A17BCBD4ED43270D03E3645ADB81F6D62CC07A3243EB81C07E01681DDF2DB4730631E6DDA6CBBD048BE9F06AEB3CF06B31DD6C9575E37E9FF17161342C4C76D95519672A6509E0F5C4E7
311
1B4B1916440059F57D0921F496237E473A83E3E4E06353BD9D27593594D7B6707C08D22FEBDFBFFE03504B0304140006080800247BEE548DFFFC99640100009B0300004500000030314436393034332D454236462D344146372D394232342D3644454241313744353533332F536368656D61732F52656E6465724D61746572
311
69616C536368656D612E786D6CA5535D6BC230147DDFAF08799F5FDB600FADA20EA430D968A7AF12D36B1B481349529DFF7EF9A85A718860DFDA73EFB987734EA3D16FC5D10E946652C4B8DFE9610482CA9C8922C6B5D93CBFE3D1F0291A6B0D26A3255464182D920FB4233CC629881CD49C18508CF000E3EE309A100D6162
311
2AAB4A8A33B2483F11CB639C545B0E1508438C3D3C0361192846DB7ACD198DF186700D182920B914FC1063A36AFBEE8FBA03FFD3CC1D1F4FC9E151A2AF59F628C5B7821D83FDFD3489305080F2EE04BF962195FB285E9D2DD352320A9E827AE357594914E42B1F5FE35F83688F60C4C91A6C946ED0668E8F244BC2EB0BA6E3
311
BCCFC0B6A4B507F9F9F8D51EB315D9BA9E08D308E89F96931666E577837E2B4172199C68C4FE306156D47DF51C698C7B9D97FE5BEFE2190C3C38BB054E6E8163FB039CB4B993C80BF18D969203116D6BBD26238B821F9BB909AD6D9C71B85BCD8C33D66FEA3D31B4BC0AD45BEA46BBEDDFEC0F504B0304140006080800247B
311
EE54C46B991451000000570000004700000030314436393034332D454236462D344146372D394232342D3644454241313744353533332F4173736574446174612F41737365745461626C654F66436F6E74656E74732E62696E536160603073B37034723377D2B530B674D335B13073D1B5707234D0353233B470337133B274
311
75751402AACB4D2C492DCA4CCC492C28484D2C4ACC4B4E050A82012F90744FCD03CA26072767A4E6260200504B0304140006080800247BEE54C55C663656000000680000004500000030314436393034332D454236462D344146372D394232342D3644454241313744353533332F4173736574446174612F53747265616D56
311
657273696F6E5461626C652E696E665D8CBD0A80300C06F73E4B29FE6CDD8A2E82A083B8B7F209014925C9FBA3AEAEC7DD2555D896CB85E51C2A1BD834F6A1F56EC4494C4695278364ABB24ABD2146F88CCEBB89D5321FF8F3F43D672A3B44DF3CB6A1710F504B0304140006080800247BEE5442338AE837010000A2040000
311
3600000030314436393034332D454236462D344146372D394232342D3644454241313744353533332F4173736574446174612F636E782E786D6CCD94314FC3301085FF4A64893176125151558E2B044B2790A818D8AECEA55875ECC8BE20F8F7D86D0650115387AEA7EFEE9E9FFC4EAE3F075B7C6088C6BB96D5BC62053AED
311
3BE3F62D9BA82F97AC582B19BCA71F182B1C0CD8B25C664AEE839FC6B9D4610F93CD556BDC612EDEC788B4859DC5A7FEC13B42479115DA428C2D8BFA1D07E03091EF301E780704BCE601A39F82C63489CC80F3241D10083BA69AAA69CAEAAEAC6FB7F562D52C56D5F24D8A4C2AB9F3DECEBC49CB821F6F9A4A9FF632554991
311
0125A760662ABF86A9BF54F29D71522452C94821B93277D0D7983A601CADD140C93CE1352195094218A438C14A8AECC22F2F1EB137CEE4964D9206E4C3731288810C5EA127FFA9BDBC371B17099CC66B76E45CE3E57D7839FEA2D7532C8FB9B9BEB49C6BE4C6F517C88A389E93149D7C5DD437504B0304140006080800247B
311
EE54B10F1E27E7000000600100006700000030314436393034332D454236462D344146372D394232342D3644454241313744353533332F5265736F75726365732F36463841324637422D383339462D343836442D384241302D3236313846344632394545412F7468756D626E61696C2F302F636E782E786D6C4D90C16EC420
311
0C447F2542EA3181445D75B572D89FE8A9978A126F8A966004A66AFFBED072D8D358E327CB3370FD3EFCF085293B0AAB982725060C963617F65514BE8D67315C3524227EC0C410CC81AB68B6D0B0272AB15B1BDE4CF1CDF52EDCBBB963C0E4EC7B0CBB18AC3739AF22DB4F3CCC640AD386F93E6D86CD344F09339564B11E60
311
77603F60131AC64DE8452DCBA85EC6F9F9753E5D96D3459DDF403652C30791EFBC0B8C89E2D3A22CD531D47F14C8066828C975AA8510FAE1399075A92173AAF93BC43FB1422646EFACE15A9324CBC86385D01C20FF610DB2E5ADF25746D5D68DFE05504B0304140006080800247BEE54A233C2345D00000080000000650000
311
0030314436393034332D454236462D344146372D394232342D3644454241313744353533332F5265736F75726365732F36463841324637422D383339462D343836442D384241302D3236313846344632394545412F7468756D626E61696C2F636E782E786D6C4D8B490E80201004BF42E6EE76F3C0F216234B883063108CCF
311
170C074F95AE5473F5C4C06E932E4F28601967600677D21E9D8092EDB002539227A2FCCB80E1168D80A6417297A89C5D6963B7129A0D1E8F2EE73AA7B62BBEB8B27DE50B504B0304140006080800247BEE54BE89762363000000880000005B00000030314436393034332D454236462D344146372D394232342D3644454241
311
313744353533332F5265736F75726365732F36463841324637422D383339462D343836442D384241302D3236313846344632394545412F636E782E786D6C4DCC3B0E80201004D0AB90EDFD75167CCE820A4A845D83603CBE602CAC26799919AEEEE0D965E2E908050C6D0FCCE04C8BC355404EB6198129C92351FAD580A10E
311
464065907C8D948F8F166375F655BDC3FDC3B4E530A176BE7057BDC43B2A593FE403504B0304140006080800247BEE54F02AD4547E000000A30000003600000030314436393034332D454236462D344146372D394232342D3644454241313744353533332F5265736F75726365732F636E782E786D6C4D8CD10A832018465F
311
45FE7BB772E1FE200D63F91EB12C64A6C3E5D8E34F4717BBFAE0F09DD3F59FCD91B7892F1BBC80FA540131FE1E66EB5701695F2802E9651743D8FF6E40FCB419010583ECD618D2F340B359A6E40A75D63F0EC8352AA6AF03C54BAB6983FC4671501565BC46DD68D68EA3CAC6B928797EBDBC252FBF504B0304140006080800
311
247BEE541C255B620B010000550300003400000030314436393034332D454236462D344146372D394232342D3644454241313744353533332F536368656D61732F636E782E786D6CCD93BD4E042114855F65426239C04CDCB8D9306C616165A35676C8DC5DC90277C28FD1B717468ADDC44E8BEDE0E4CBCD3907AED87F3ADB
311
7D408806FD4406CA49075EE36CFC7122391DFA2DE9F65204C4748691CE2B0713A93291E218302F4D9AE1A0B2ADAA35FED4C47B740EFDB37E07A748A7AD8A712271BD529513CE104F745649D1810688988386322119076D820EA012CC448E7C1C7B7ED70FB72FC366376E767CFB2A5825A57843B48D373E41C0E566E41ACBD1
311
17435CB00A48918369544D41E4B93B5AFA10AC1052C4144A0B8D4C5F4B21D5B258A3552A65B115FC61A46035EC45E407F0108CBED6CC17F6FE2DF413F819C26379A96094BDD6ECBFB9FC5B056CDD80F20DEA42C86F504B0304140006080800247BEE54E3603EBE7A000000C20000002C00000030314436393034332D454236
311
462D344146372D394232342D3644454241313744353533332F636E782E786D6C6DCD410EC2201085E1AB90D9DBEACE05D09878023D01A1D34A8419C380F1F82DA68B9AB8FDFEC93C3D7C52546FCC12980C9CBA232824CF63A0D9402DD3E10C6AB03A3397DD192872090D3406ABE7CCF5B5D18893ABB1690CF4DCF02282E5EA
311
8A5BB96FFE536F285CB347F95BEFFE81C9ED5AFF9D5B1FB575BB00504B0304140006080800247BEE54B5288CDE7F000000A300000007000000636E782E786D6C4D8CD10A832018465F45FE7B379D660BCC48ACF7886511950E97638F3F1D5DECEA83C3778E6C3EFB86DE36BC16EF6AA01702C8BA871F1737D7108F09DF0135
311
4A06EF8FBF1B2037ECB6868C41C939F8F83CD168A7216E996E8B5B4F48A81115E10C775AF498B77D892B7DE358984EB7B43445C15832AE5949F3EBA5CD79F505504B0304140006080800247BEE54CA1DF9C9A900000073010000130000005B436F6E74656E745F54797065735D2E786D6CA590410EC2300C04BF12E5DEBA70
311
400835E500FC800F84E0B411AD13252E2ABF27A55740421CEDDDD9B55CEFA7A117778CC979527255565220197F75D42A39B22DB652EC9BFAFC089844F65252B2630E3B80643A1C742A7D40CA8AF571D09CC7D842D0E6A65B8475556DC07862242E78CE904D7D44ABC79EC569CAEBA537E3521C16DF5CA5A40EA17746733E0B
311
6615DE7217475F386F18B9481C510F1F021CD9FF027EA0E1F5C4E609504B0304140006080800247BEE543DEE336E64000000790000001B0000006175746F6465736B2D64657369676E2D7061636B6167652E786D6C35CBC10E83200C00D05F21DCA56CA76D41FC96062B120735B69A7DBE268BB7777961F8D5AF396893C2AD
311
B70FE7ADA196782C2DF776D7A97B5933C430F15651E5469C55D70F80A4992A3ADC954792C525AE70A1E4D6AD9816CC044FEFDF01FE3FDE907802504B0304140006080800247BEE54B18F03D8F9000000960100003700000030314436393034332D454236462D344146372D394232342D3644454241313744353533332F4173
311
736574446174612F636F72652E786D6C8550CB6EC32010FC156BEFF88149ED4498C879F80B7AEA0D61E2A0C460F1A8FAF985D895DA534FBB9A9D99DD1D7AFC9A9FD9A7B44E19DD41959790492DCCA8F4D441F037D4427664D41AE37FD120D37C961D2418189DAC09CB0609A3BDD409D566941BC89D931E32F18C4D074EDCE5
311
CC731E7C64B847BE70F1E093CCAB7CE5311A821A37A91AA39BBA296981913782F7673CA0D3D09F1039D704ED717F45845CCBBA6C9BAAB90CB4486246BD9A7FB60B2BB99723305C628CCA0655E4BDDA1DF0EE50B61FB4484C469DB7F1E76D69FA0E589FAEBE70CF69B14EFFB88665FCDF3528ED6BBCB9AE0A07AC8A47BE068C
311
1629A5585E11C69A1265DF504B0304140006080800247BEE54A1613F8EF40000008E0100006800000030314436393034332D454236462D344146372D394232342D3644454241313744353533332F5265736F75726365732F36463841324637422D383339462D343836442D384241302D3236313846344632394545412F7468
311
756D626E61696C2F302F636F72652E786D6C8550416EC32010FC8AB5776C8C49ED44982849E317F4D41B02E2A2C46019A8FAFC42EC4AEDA9A75DCDCECCEE0E3B7E4D8FE2532FDE38DB435D6228B4954E193BF610C30D75501C395B9C0BBF68505831E91E320C9C8D8B8BF306496783B619B54EE90D14DEEB00857CA4A6072F
311
3FF4244A114362F87B390B7917A32EEB72E57116A3519BD4A8E4666E462FC0E90B25FB0B19D079389D11BD3414EDC9E98A28BDE206776DDDBE0EACCA62CE82997EB6CB458BA01570820941B845357DAB7707B23BE0EE9D5599C9990F4BFA795B9ABF038E59B5A27FDCE2ACFE778BC686866C6EABC203AFD371CF0167554E27
311
956774A9E624F937504B0304140006080800247BEE54D14132DAFB000000960100006600000030314436393034332D454236462D344146372D394232342D3644454241313744353533332F5265736F75726365732F36463841324637422D383339462D343836442D384241302D3236313846344632394545412F7468756D62
311
6E61696C2F636F72652E786D6C8550416EC32010FC8AB5776CC0A476224C94A4F10B7AEA8DDAC441B1C13250F5F985D895DA534FBB9A9D99DD1D7EFC9AC6EC532D4E5BD300C93164CA74B6D7666820F81BAA213B0ABE58EB7FD1203372520D2418041F161BE60DEAACF1CA24D4D85E6DA0744E79C8BA31360DB8EEAE2699CB
311
E023C33DF259760F39A89CE42B4FF01074BF49751FDDF44DAB05047B61747FA12D3AB7A733629792A13D3D5D1163575CE2BA22D56BCB8B2416DCEBE9677BB728E9550F82624A11AE10616F6477A0BB03AEDF799198823BBFC49FB7A5E93B10FE1EA60F23F5C88B75FAC735CCFDFFAE411B5FD2CD75553810241EF91C085EA4
311
94627946186B4A547C03504B0304140006080800247BEE543FE38E630D010000B10100005C00000030314436393034332D454236462D344146372D394232342D3644454241313744353533332F5265736F75726365732F36463841324637422D383339462D343836442D384241302D3236313846344632394545412F636F72
311
652E786D6C8590D16E832018855FC5708F0252C50669B49527D8D5EE8C52475AA11158F6F883D625DBD5AE7E7238878FFFF0D3D77ACF3ED5E6B4352DC039029932939DB5595A10FC1532909D04DFACF5BF6C2033E3AA5A906420F8B2D9F0D8A5C91AAF4C528D9DD52E8ECE290FB2E91E0F2D70D3875AC77C0C3E3ADC2D7F8C
311
D36D5C548EF3974FF010F4BC47F51C5FD357AD3620684549732612F6B2EB213D971436A41B20A5032A11AB717D91BC4861C1BD5E7FE8D3A646AF6620082204A21A62FA860F47723822F6CE8BE414DCF92DEEBC43D3764054927544D63D6465232165D505B2BE43905498492A49330C1D2F5EC13FC0F098FF07066D7C4976E0
311
2BE180C0F1FFCF0BC18B54601CCF76E34C658B6F504B0304140006080800247BEE5425D36485FB000000960100003700000030314436393034332D454236462D344146372D394232342D3644454241313744353533332F5265736F75726365732F636F72652E786D6C8550496EC3300CFC8AC1BBBCC84AB3405690A4F1038A
311
9E7A1364C611124B8696A2CFAF94B8407BEA89C47066480EDF7F4DF7E2139DD7D674D094351468941DB4193B88E1423650EC0577D6865F34288C9CB0830C83E0A3B3715E20654D40935163075C40E93D0628D43D351D7875C549963286C4F0B77296EA26472C9BF2C9133C463D2C523D24377DD1E840B01746B727DA93637F
311
3812766A19D9D2C3993076AEDB7AB36ED6AF3DAFB258F0A0A79FEDCAA10C3880A035A5A45E9386BD37AB1D5DEDEACD07AF3253701F5CFA79599ABF03F186DE46A7D0F3EA39FDE31AE7E17FD7A84D68E9E2FA5478104D3AF23110BCCA29A5F28830D59CA8F806504B0304140006080800247BEE546191BFCDF8000000940100
311
003500000030314436393034332D454236462D344146372D394232342D3644454241313744353533332F536368656D61732F636F72652E786D6C8550CB6E833010FC15B477F3304E21917194A4E107DA536F9671889560233FAA7E7E6DA0527BEA6957B333B3BB438F5FD333FB94D629A33BA8F21232A98519941E3B08FE86
311
5AC88E8C5A63FC2F1A649A4FB2830403A3A33561DE2061B4973AA1DA0C7203B973D243269EB1E9C089BB9C78CE838F0CF7C8672E1E7C947995AF3C464350C3265543745337252D30F242F0FE827B74EE4F67442E35417B7CBA2242AE655DB64DD5BCF6B4486246BD9A7EB60B2BB99703305C628CCA0655E4BDDA1DF0EE50B6
311
1FB4484C469DB7F1E76D69FA0ED8DB72A7A3C53AFBE319E6E17FCFA0B4AFF1E6B92A1CB02A9EB80C182D5246B12C01C69AF264DF504B0304140006080800247BEE54F82E79BF03010000D80100002D00000030314436393034332D454236462D344146372D394232342D3644454241313744353533332F636F72652E786D6C
311
9591C172832010865FC5D93B2AA831C9209938264FD0536F543696490447B0D3C72F543B6D6FED09E6E7FB77F977F9E97D7C246F383B6D4D0334CD2141D35BA5CDD0C0E26F640FC949F0D95AFF0383C4C8111B8832083ECC769936A9B7C6A389AAB10A37513A871E92FE112E0DB8FE154799CAC507C2DDD349F67739604AD3
311
9513DCEBF1CBDACF283D2A102C678CE435A1E513AD8EAC3AE6FB679E4552F0451B5FB0AD198E2FA8123BF910094455F06C7D0ED8A2D50669153EA96F1A671039ED7687BC2CC8A5DD5D4979BED6E4D0B292ECBA4B7BA6755755452C12CC823B3F87D16C45E210FE6A5F8DBFA22D93FA67B4D5E140D0EF50599CB3E0D9E712C2
311
1977223E00504B0304140006080800247BEE546865D30D08010000B201000008000000636F72652E786D6C8D50416EC32010FC0ADA3B36C6A471224C94A4F10B7AEA8D1AE2A0D860191CB5BF2FC4AED4DE7A5A3433BB330C3F7C0E3D7AE8C91B676B28320248DBD62963BB1AE670C515A083E09373E1970C909583AE21C120
311
7837B9795CA1D6D9A06D42AD537A05A5F73A006AFBF8A8C1B7373DC84CCE212AFC3D1B657B979DCE8A6CD1091ECCF0B3DA4E5A06AD40504229265B5CB0B762B3A79B3DA9DE799E9482CFB351AB9551D1DD5C8D9E40B017467767DAE053733C61762E19DED1E30533762125A9B6C5F6B5E1795A16DC8729FE793D127306E4E5
311
23F9F27CA104FF70AE5F05319442CEF65F2008CF13F127F43CAA7F84363694743DB86C7810450CF424A2716A308E67BD71A6B6C537504B01021400140006080800247BEE54D37A67FE28010000A80100004F000000000000000000000000000000000030314436393034332D454236462D344146372D394232342D36444542
311
41313744353533332F4173736574446174612F446566696E6974696F6E4974657261746F7250726F706572746965732E62696E504B01021400140006080800247BEE54BE8A1AF5F00000003002000045000000000000000000000000009501000030314436393034332D454236462D344146372D394232342D364445424131
311
3744353533332F4173736574446174612F496E7374616E636550726F706572746965732E62696E504B01021400140006080800247BEE5488E57597CD3F0000904100006B00000000000000000000000000E802000030314436393034332D454236462D344146372D394232342D3644454241313744353533332F5265736F75
311
726365732F36463841324637422D383339462D343836442D384241302D3236313846344632394545412F7468756D626E61696C2F302F67656E657269635F706E67504B01021400140006080800247BEE5428BB58AF800100009E0500003D000000000000000000000000003E43000030314436393034332D454236462D3441
311
46372D394232342D3644454241313744353533332F536368656D61732F436F6D6D6F6E536368656D612E786D6C504B01021400140006080800247BEE54E336299B9F040000341300003E000000000000000000000000001945000030314436393034332D454236462D344146372D394232342D364445424131374435353333
311
2F536368656D61732F47656E65726963536368656D612E786D6C504B01021400140006080800247BEE548DFFFC99640100009B0300004500000000000000000000000000144A000030314436393034332D454236462D344146372D394232342D3644454241313744353533332F536368656D61732F52656E6465724D617465
311
7269616C536368656D612E786D6C504B01021400140006080800247BEE54C46B991451000000570000004700000000000000000000000000DB4B000030314436393034332D454236462D344146372D394232342D3644454241313744353533332F4173736574446174612F41737365745461626C654F66436F6E74656E7473
311
2E62696E504B01021400140006080800247BEE54C55C663656000000680000004500000000000000000000000000914C000030314436393034332D454236462D344146372D394232342D3644454241313744353533332F4173736574446174612F53747265616D56657273696F6E5461626C652E696E66504B010214001400
311
06080800247BEE5442338AE837010000A204000036000000000000000000000000004A4D000030314436393034332D454236462D344146372D394232342D3644454241313744353533332F4173736574446174612F636E782E786D6C504B01021400140006080800247BEE54B10F1E27E70000006001000067000000000000
311
00000000000000D54E000030314436393034332D454236462D344146372D394232342D3644454241313744353533332F5265736F75726365732F36463841324637422D383339462D343836442D384241302D3236313846344632394545412F7468756D626E61696C2F302F636E782E786D6C504B0102140014000608080024
311
7BEE54A233C2345D0000008000000065000000000000000000000000004150000030314436393034332D454236462D344146372D394232342D3644454241313744353533332F5265736F75726365732F36463841324637422D383339462D343836442D384241302D3236313846344632394545412F7468756D626E61696C2F
311
636E782E786D6C504B01021400140006080800247BEE54BE89762363000000880000005B000000000000000000000000002151000030314436393034332D454236462D344146372D394232342D3644454241313744353533332F5265736F75726365732F36463841324637422D383339462D343836442D384241302D323631
311
3846344632394545412F636E782E786D6C504B01021400140006080800247BEE54F02AD4547E000000A30000003600000000000000000000000000FD51000030314436393034332D454236462D344146372D394232342D3644454241313744353533332F5265736F75726365732F636E782E786D6C504B0102140014000608
311
0800247BEE541C255B620B010000550300003400000000000000000000000000CF52000030314436393034332D454236462D344146372D394232342D3644454241313744353533332F536368656D61732F636E782E786D6C504B01021400140006080800247BEE54E3603EBE7A000000C20000002C00000000000000000000
311
0000002C54000030314436393034332D454236462D344146372D394232342D3644454241313744353533332F636E782E786D6C504B01021400140006080800247BEE54B5288CDE7F000000A30000000700000000000000000000000000F0540000636E782E786D6C504B01021400140006080800247BEE54CA1DF9C9A90000
311
00730100001300000000000000000000000000945500005B436F6E74656E745F54797065735D2E786D6C504B01021400140006080800247BEE543DEE336E64000000790000001B000000000000000000000000006E5600006175746F6465736B2D64657369676E2D7061636B6167652E786D6C504B01021400140006080800
311
247BEE54B18F03D8F90000009601000037000000000000000000000000000B57000030314436393034332D454236462D344146372D394232342D3644454241313744353533332F4173736574446174612F636F72652E786D6C504B01021400140006080800247BEE54A1613F8EF40000008E01000068000000000000000000
311
000000005958000030314436393034332D454236462D344146372D394232342D3644454241313744353533332F5265736F75726365732F36463841324637422D383339462D343836442D384241302D3236313846344632394545412F7468756D626E61696C2F302F636F72652E786D6C504B01021400140006080800247BEE
311
54D14132DAFB000000960100006600000000000000000000000000D359000030314436393034332D454236462D344146372D394232342D3644454241313744353533332F5265736F75726365732F36463841324637422D383339462D343836442D384241302D3236313846344632394545412F7468756D626E61696C2F636F
311
72652E786D6C504B01021400140006080800247BEE543FE38E630D010000B10100005C00000000000000000000000000525B000030314436393034332D454236462D344146372D394232342D3644454241313744353533332F5265736F75726365732F36463841324637422D383339462D343836442D384241302D32363138
311
46344632394545412F636F72652E786D6C504B01021400140006080800247BEE5425D36485FB000000960100003700000000000000000000000000D95C000030314436393034332D454236462D344146372D394232342D3644454241313744353533332F5265736F75726365732F636F72652E786D6C504B01021400140006
311
080800247BEE546191BFCDF8000000940100003500000000000000000000000000295E000030314436393034332D454236462D344146372D394232342D3644454241313744353533332F536368656D61732F636F72652E786D6C504B01021400140006080800247BEE54F82E79BF03010000D80100002D0000000000000000
311
0000000000745F000030314436393034332D454236462D344146372D394232342D3644454241313744353533332F636F72652E786D6C504B01021400140006080800247BEE546865D30D08010000B20100000800000000000000000000000000C2600000636F72652E786D6C504B0506000000001A001A00210B0000F06100
311
000000
310
504B0304140006080800247BEE54000000000000000000000000370000006662782F38414535304639332D424531382D344638452D394337332D4635303430363634423036352F617474726962757465732E62696E504B0304140006080800247BEE54000000000000000000000000350000006662782F3841453530463933
310
2D424531382D344638452D394337332D4635303430363634423036352F76657274696365732E62696E504B0304140006080800247BEE54F270F1330600000004000000360000006662782F38414535304639332D424531382D344638452D394337332D4635303430363634423036352F747269616E676C65732E62696E6366
310
60600000504B0304140006080800247BEE5488E57597CD3F000090410000420000006662782F38414535304639332D424531382D344638452D394337332D4635303430363634423036352F7265736F75726365732F322F305F67656E657269632E706E67355B773CD4FF1FBF73E71C0E67EF7576C9DEF3EC995D46C6A1EC50
310
46649CBDF79E192942562825CE965D8A868C2842C8DE9FDFD1F7E7F138F7078FCF6B3F5FCFD7EBFDFEC41B196891913091804020321D6D7513FC77D8C5070EC3FFEE51B21F068154CC75D455CC028A3EA68992803810109FDDE5D5CEC5521B28A1B422BF80741695D5B529DA1C2D058AD2388BDA9F476F7C2CADC939304173
310
DBF48A452BF8A700C0C70C3D121C1AA15A5270C22E2B9E28763651F7DA0D12CE11077B2ECD0D560B5E3DE2368B1E65C5E1C87384A4CC5F2D9FB8BE39E9B77C753783A37998F5CEF1B4FEE553463245C9712270880DF339E0B882A6BA713D865F6F384C842D440934EF264F4A304F8DE4EEFA1E2BF5E2D91F5ADD9613D6E31D
310
DB33ED31DB1D7916CAF091286EA3D31B9CFECB78BB0060245B943C4C040119FF780A74DD308BA9D028678674EB5504ECF284EE814DAED07440BAF649BE4B55DA2890F4D73E2D489A59EE54FDB0A85B59F2F52C4858A02705C4815A792B0C4A996A2023ECB195073E115E3E3647F64243A8338F2000BCB58DA5692C7E7C3D41
310
3F963FEDF3CF00FBB0F831A9D51360FECA43819F527B89FA260EB63C5DA676830AA3626A3693B23F1A17A0DFFCE3EE164E31B5365EDF0C89EF64D8E38AB0BA9A1117D7C3A0EC44F44F4023095E80BA610DE336D0F99593A88BFC5306E72DF98F7FD132ED95878DF2964EA7E43071359FD83B2BDF9C6B5BDF768F0F3C0FC351
310
199526F53D9460A34511F75D1B63E488178569472C91A94497807A3FD4A390C6558F26D416365C3656DE6E769DA9D8FC73774E1709812842DD8EF96AED1960F79D21B395CDDFE6F92CB4EB962A4668C76990E2EF29798C8941D67DA50F4A5F947872460F1F6FDB794E8A29FD7AC0C0D6E0714339CE258FB17AE8535221E346
310
4A10F29A0BE5EEECEFC5675926A89F49EB14E5711894F6586DB5754EB4D5DA9C6437EBA57DB97A24F8B8A8DB295FFD73266CF57E82694DF5166DDF93573AFE9C9C5EB05F8FEF8E89E0A8917B0B3724DB7BEBB53252581EFC3E38166BA131A3A5B42FE2AD00A769BBFA4458D2DE7822F8C4F63D0B8E21B285AE13325F3410A4
310
35C648C9D91FDEB109E73CEDA7BC796961AF79175E1A3CE4C5E8B0D009B0C9E29EFD98BC8E97554E3D8D838424E270F7685226E5AC268E021EDE3522D583E8F20C0BDE2959EF5BBFEEDAB32FE9A3ED0E39F211A86AA9DEBFC68182EDED132AB8BB794442D2D7EA9F4D8BFF52BC4D55BB165124EE90A42D101E67BBBB292FFB
310
4F66DE5BF2300E44546757DA7CEF8932BFC9F92A0707953491A55C5A5ACEDABD9FA1AEA01BAC3DC5A24E22E7C47213493996EFBC369D086ED9397C9BA6C7F9855C7BD5E15BFC8C53DB3D2A4C5901A57ACD2FBDF4D1676E95338B2C2BCE65FDA4C64F5FEFDC7D9CA5AA1FCF11E193F2FDABF0F4916BF13FB916A224380E6462
310
A9815F2300DC49CC4DF8D055CEF76462F4B7A7ACA7365C2707891370BC1D0AA6203C44CCAB47084FEC057F27FFCD57F89B8B9852459798A675C66BD7CE572CAF71FF7E6D7ECF7BF62CAB7B3F1107DCD04DC55A3F9961700286141C94A4F771FEB2BCDA2DDEE0CB0BAE402FF1DB0100F8E475DFFFC074DDB4498AB7D186A765
310
4DDB1CB680D703D47CEB4E72F8CB13D86A4AA68116E26387B93FD6738779B34FEDB8E517EDF2BAF28D9BE93A1D3A164320E07D42E514725C29515FF361754213EDE06B079A2E99EB1CA82A02019EADEEB87B9AF005BD04BBCECB14AACD6B24EFBE482194A97DD32400685FF1FEF1544D1B14EFB1E7F08E6D2CD2AF52DE757F
310
35F5E62332EE88EA26417AD5C3E0E319D68F25414E6D672BD4522B278C57D18F0113921C71D96527E091F00CEB15AE23D24667369BD3CEFA10C7549D930890BA4366F4EBC55F01F746109F98ABCDD5A3EE06619C6AD78AB33E48E4C9BD21BF7478B385EC05C4F8987E2C1BFA0A60EBEDAA0AE0B015C2720ECE180FB6F2DEFB
310
EB822D96338C9B63822183BBF52FB664A7AE57003AABCE512BF77E7E31BDA2E739AC4C131657DDFE5225E900FB56CC01CDE808FA4A9C9DA16AC679656BB64796283D89812B8F91136AE18EE5EBBAF47A73BE3C153EB5D4CD491B4BFB4FE690A4CF9ABA08C0D8AA64220C438C96EA6CA80B58FE5761E697B3A292EB9FBDA502
310
FA863E49FE694ADDFFF9D62C520BDD1A22014147A0903A05B9B729F54272EF83931FEEC057BFF8C8055C279EAC5C0011804828734024F6CFA319C9CC6867C727184465CD9BB7ED386AFFD96B294A85E3802FAE47244602D8273615952B98C4F23F7EAE4463D9D638EEE374A20959E0FE519C4CFB0FBFE5DD80C2AA3F9DB961
310
D1BDE57E67C9BB47B77FDD74EE3094F5DBBE3EBC1FBDB7393F5116263009E2EFE1AF9A221B2AE234C902BF70E9F280ED23E73908361565964333A3F01D0B006AF32FB21AA1316744B489D5A198E85299241735BE559675130955C902A8ED761FC0DBE337A9F91919AF5CE32AF902ADF9AB2615E00E8A94586BA1A90839B618
310
32FF1BFB76D2EFADE6DB1BA04CCAD3DA649E7E2A0219F592E22F2AD54847EEA8E42271011E9074F8F3DD9FBA6CDF88FFC9FC7E811AD1CA8F4557CE4AFC7BBEDCF0114A48689F20A584520C74DA8127124B767E2FB91A6B186246727BE63C9445BAE02088D58B8EFDC0F1072407CD9B89A13F6303B4A928F593AD489B58E686
310
9325790ADC406036C591729FE14021F94B7796BB11848D463536A092A26F077F94639F7CEEE2A724C66EC885F4A24F8B8A0AC321F8FD149BA529460FAA34E4663C02D41FDF80BCA222D42F0ABFF8490F4FA74C673807C2051D8E467B47B616072860069A9A303ABA9B319D58404461401B0A0F9BE5E1E151C14BC33B32ABE0
310
3DDE91708DFAEB15E7C0D593C86BB7D7EC17BE56E57975F077BFD5525F3A1A361D584A75E08CF29FC7B44B2B3085014F3A5A14517377C3F6B8F37E59514C3B12F8AACDEDDA4DFC49BE5710101534CD6FB6DE15B50F11A09472AABA727F0C49D9CB906B158030065F48EB3625E010CEC1D511D0053474B11E6A4F01C0D6EF1B
310
ED3A944FDEC70E0DDCDC756C86545910E0DAE3BE3AA9A404574C2995CD5CAF9549226BC94B4F4F0F5F9086F418F6B32346464610D8BC7391D3C3A3CCF04CFC1FB2A3A3170E369511868F14EEA4E5E438CC73DB1F3248AA94B6B2FF33B222FF3D1E7BF146CAD229770158063BCE4F5391964DF62F7E52A7BE0EEA829C9E13C4
310
C147D6F93FE59E111DAB5E4594D6F3CD1AD375EE039930EFE5AF2BB2D41C83C7DABD8C659BAFBE8FAB392CA634F3D15C1D945DB4588D2B0824A4EC928AAC565557CA2F0DAA588CA5BE30B3A8004F7BF005E96CBF891D7F18112A3619FDF530DC8AA64954258E1811789B5189B49B4EB53F5F89F7D37523894F3EB57B373763
310
C91E502F52CC99EB7BDDF933FC324C4FFC2561DFFA7339FAFDD0A4BFBE6D3A8FF9ED1FC49898139864602458968913181918F719CCF5A68B2EE9C1FF050E34E63107003B8120FA982C21B30A874E4F5E4B38D5A8290C4B8D9BE48A0BE31EA995BDC37AC6DE90BA17D259DEF53605D55922FEB1855D915B659FBEB350EE0DFB
310
2F9F766E1C84CC8964B75D08667445EAB966015F63A18A9E0A325C1B3DC628C0D3CB60F767FA93CC65F25458BD23C3B312716E5F40E5858AC06EBA9AB14F95DB99147B832069201541D09A0D856E12C629CF32683760EE855537D1901988D5EBC156676C7DD51D7207CF3267AF1D76C2AD867315E44618015313A98B19941C
310
696FED3461CAA9B5415F918556D7802EDACEFD6B2E45853A9735DFC9DBF7E440F9319F8B6805A973BCCDC76C069A9144E51F187EDCC12FC31B5DEAAF0A76137199B106EC84ADA6B6EE697D4E6A96E007417F4E880E8B1E89B4BCE9D81EF611E2ED8F0C1A6C25F620FAFAAB656A7C42D464880E8AFAB0E0FC8EA38CA9A8AEEA
310
EE3E4648BA4680270A89743CDD3E6C6CBF34B7B640EFA285ABC7EA0A1E28F3CC963D114A80123EE66D0AF7D5380EB41909B605AB4765B709B808590458157E69BA1378FEC4B48CAF6A730E3BE3C5EF2DD1A5EAF94B1DDE50CEB55DDFD7EE9A16747FA4B223359FB1FCC69E1194892BABB93A1D5C4E807AC0EA2E30180811E7
310
7A2291F6E7F7FAA5E0F60215BC6024E48DE436C511F0628B8CA189982D4D83CCA17D305A7E923C37941CFDFDCD93ACAF735EF5F0E61BBD3E6C41A59B242790D3A3BAC7064DCD89AA2E37214EC839820949D5CAA31E240D2948E48F690298974A96BA9A8432BC90F5071D6537C9666EA4564796B7AFFFA548077BEEA75F6308
310
3435074BA182F3699557397F71548383FDA8CA34D99B981E72835ECDA5DDDC151315173D05A21F651AAF8524E88209E2E7A737ED1045800CE3390050BCFB8BE588DF111617874C62575039CA588EEFDEFEFE319B739DE2EDC147092A262611E159650E787917885EF08F1F51B8F2D8A71D60B58B190FEF9541A1BE94BC19FE
310
A50784DA1419FE4B0FB51B8D36B5FF8E1286FD8AF42B91E59A5F1CC4D60174E764045FD8C57B18209B217F89A62252BD20BE0E63E12B8E8F029FE19E0E8D0870F58721A557082250D5424F7909369376E41666C0EE77CD87CB283F661D5FB6D0DA023CB67320A20DC7BE661E9E1BFE5463085C557DA1FF9BE835733766C3D1
310
39F2CF9E2208873AD0EB4814DE9E6BF2CAF81614D4D43906ED1C05A3265CABBFE192770FC2F64F940CB6B17B5F166F133C9AEEAD2641807C3E69515171DD74C4A85311513D6EC9530B3B601B6BA3EBFF3B5C3D2F7D69765141E345F75433953D013ADDF8F6AA7DC3F4A7563FE5C7D367937E2900D7EAD0F9FC9A4A1A9B5BDF
310
1FEF08532660C01C5D6DE22199AA774383E306DAB87E301ABB7D213887F9869D4942D0D71E94B27EDF216A318BD488D45DF84529EF575AF3C3938C0AAA0215B01994153E2054A0B894DA5C784980633AAD48576957CF4AEAEAFADC7C587368551C73DBE1E57C58AC713303A8BFC258BD04B51724459FF9E24C03A81E0E0679
310
CEB9B348C0DC998FEB9C6D6EFA77D247CC8F92D3848599ED89A23218D0636465AD1CEEB7DC140D7426F83491C4E8E8281C2FB35240918FFECE880CA2A42D70E8B20B34DF5221C7DB0CF90ECCB9C745B37A47E9B716FF7A97B7A252C1F3814DC7B1E1A7F72B8751D524EF7CAE45B0C73B3BE7D08ED39781B380DDFC9AA4A474
310
9C9493DB5BAD07A6EA6C092FBD0E85DB004DF06B8C9D3089C5320187E4CE1846158C7EA7DDAE8AD9AFFF21AA3A1026BB06A259845E8232DEE62811A4DA9CEAB3A4887320B76E2AE5615EAB7BDF738CBDD01F1E64064BC13D9EC53576751CA8CACD58B3CEB0E6CA585BD089B2A59B9FC101403387AADBDBE70586B93D64BF3A
310
D4453EF9C3B6A93817E8346991798601344F79A83C51F3D50F7BF2683A3605F51A72449489E0EE6169C749C60B1035651103AEE24D24E51A759C840DD3FC6504DA6FE107510E447B43461C79D22970B75DE5E1BD3007D1AFC619A4A4A69B5626AF5E9B8374E20677F77E2F8E73DF868E8BEC7EBA7B6A75EEF7205E1AB9486C
310
B642741D6E03FF13FCCEDB1C4AC129886268B01CDF4B124AF797CF784F3C6DEC97A17D4B558070A0F1C04DA4FF9BDBF34159AEFE958479824B3F58EBD1E19088A2AFDE501B6F2052368A3FD0E650A179EFAB1561E1D27527077136E652676C3670F42DCB3352F48F6BC86D2C3B0051727E41A0A4DC6CE2BE9D47F5CAA2935A
310
3C0539AF080665997194ABECD723B08129CC5B6B21D2E7D54CD4D12610E7E9FB8306771A89576C7A982002775ED44F3F744CF21EEBB27A631671D921938AAEE3EB0D19CD1E083727F607823E817BF599DCED5394E37EEBC2E88782E638920CA641EF74D4CDFCDEF06F4278ECB18E31E7E9876F2D783C8BF429C75395F57E98
310
C2B495A3DA077EB3AC3C158608B6B57FE3EA48484D9A480096FCEE0DE880950E7E5A5714131C5C41AAA29FD19AE81AC145FA1B9E85C7169A5AB837B213493DF7E9AA4B5FBF9CDEB36EBD21EF1181B7CF7366AB2A951D01E37AF4EB835D1BE8C117CFBE7625D2EBCDB0B20C5A4B45CED0BCDE3EE8DA9DA78C2E21DEAAFFD119
310
7E463C33CC6A80FB785669B856EFF7A8CCCA2841B5A5369173320B1170C368B2748D81062EA0296E5E2D95D7667A4A46D98A6FF475C76AAB0A8C8D45E226FAFC9FE0133EA9F60111F99CA81ACE03A1D14C89E8B0D69079C91464FA1D99E651D0EAF606F345C42A8A1AA9BA391031582B96D5B4176A77AADB01F12FD298A75D
310
EEBB2C82F0B8650E880722F8DDD90C56A7A058E5FDEF1AC93545BA27367C76F5D8F9690CB6F8DAE141EDD7971F0FB548A2AE435F224D6E5954CA155512F7332029D5A1230854B79F258EC5FFDB09F5F6343A8EB193229B7F7E79B3E48F8E183860B38C8269D1B53738FF1E0BACF6AADA6D4869E9DE708E79B5DADCC09B1BC7
310
6F649731CFAF59A83FD8BAE4C749D66FA87A3810D4D62FFE826FA400C0F325D2BC0F3CA35F5847B82A2ACC7961745C823E4D863D54460AF792CE6F79B5C7A33B25C3AEA6CDE15A919B6367D781E9D44F61BF828672594A3E1D9EDD6DF179A81F27EAC05B936575D73E05C209DDD2115CFB705DF9BBF3C911589B3640735E9E
310
618FC9C36A7326C82B2205E244C55D56FDB9D5DC93CE958D4BF8174D2B3DA54CB3C09F2C2A6DFF73D23B2197355761AD421EC581284A7EF8DE2CE3497C0C804D49B41DFD6A7360844E5BEFFB495CFCDB97A4595911CDBA623274CE852B5E278AF0BEB1770E9D37CD977B2766A7DED0E94B840E1E95E8C77DE5CB6354AF7871
310
427C28ADBEEF7BA0A28E19DE9ACD75F379FE373EAE6DDDAE3834692F9C2B03B4FCA8FCA9ABE8EEEBEBB725B88A7C90941E850682CA04061A7DF0CE82ED49BFAFFD42C309818FAE14755CAAE78B0F73243ECCCAD7DF58FCB9CDFAE7A4D3E6671A613639130D056C8383C8F4FCF4808C331E544DD26E4755D09EA05253B3049A
310
1E32587CC25D72E073E2CD96D04A71BBCB0038FEC3F53D254199C3CDC67CD66640269431860225392B2CB3ECD0B4498AAE78BA1994246AE1EE78F2EDFB79F6C6CB6B5E279C4D373FBC21CB2698C9ACBBEB6A4BB6B39E16AB0E421CCBFC7654D81ED86022F9BB522146F9F4772E2D0E4FA70120C95A85A417BF5078B232F475
310
4363EB1750B2AC2148EB46B1EA72AD9B4D23ADCBC589D70106C3EC2ABEEED84DFE28E718C6C83502C28E9FDD3B09DA0A6F6F7B72B706A31C9E2A331EE70DA56A083D2177BFD63C55B11D8D949FAFCF90B23A1E24B9B5018B9A17E99F2890EC302F330FE7936E2C23F0D237EC8916F5166AB84B62A21BB0B950146962D754F9
310
2CC2C8877BED8FC7B7B25726DD19545392570B3A2C66B58F027BEF412E552D12A588C4A3CC5C3193FCB3485EFFF700D0B9EEC077754A33DC1FB9E25AF814628F91DDFECB667D3F7690803F38D13F8AE39353523BB08FC6760144AFA2CE28236F65EDBB3D5F59A57D612B99E3D7E5F8A851666BF9B5A6658EFC96EEB37A378A
310
BB0EB3FDDF1303AF32C41BD1C8560745D7BD81066B0D6313359CF488563D3BA3F8E2185D1FAA3EBA1397C9D0E3DD232180A4DCADB6AF25DB3AC3CC26589C8239E66E81547BC7E2F328F9884764CA37EB5DBE390DFC03A5246B456A7C3684C4377D0EEF9A350680FA9A077E8B2957B489E09AB1AD41316944C2254B5984830F
310
691C93CAA767EECF976FA5647538830B5E63236A6F0365C1E0F3E327F24FE35EDDBD7360B0F7374837409F7A6311BECC12B7026D4FA1AE204FA3F5FE904B1F420C7A9044AE58E403E7C4848E7DA25DC9EDAC79DD756FAA26B9EA83ACE8A214A2612A22AFA19DAE7DBAC5F8CDE1292A485F98DAC731A29FE01A3966E96BCB9F
310
B5A4C8830E1B9AF0C54B87FBE221A097036E5D28D1F869F810C06A9BB0AC0612F69AEBAF893C6E7AD59460208BAB3A6B09CA4F6BDDAB8CF0D1F84B72487498395A70DCD754796E271099A567A55CF242BBED64696378BB6CF25EF0FCDB589F3A82F1116D010A9AB9FA4358809EE0C973A2B4229BAA876A70B03AB49CBA7FBE
310
71DB1832FFD32F9BF2C8E98075CACAFB36921235D0F552B6A67E94E094097A5D7DF681B40623DA535ADA7A9AD8E9A62407D7C9A5AE51D62A17A83A23728DE86BB56115804D3F2675F2C6B87541A0FC497BF0CA86420F558C9859EBE9FAD62747E323E3AADC03FDCDDFE7407B09DA90B44E3185723C5381EAEF589765E2F7A0
310
99BA46695BAD60CEF3491B8A171F5F56444F7CE9455312C3498C74173AEA0214EC029833B34B650CBB5A5508D5091665309642791708ECF27CF11DB3D797D6CFE474453BD4BFADB768094B2147814D81C7CBAF8228DCAF5564B5891F5EF6A860EB2E323CB82AB868D8EA048880D63B0DE5341F1B3D53297B928A11E15F25E5
310
148990F710747C3509ED14909C552EBE3973246FCE55D00564D8310BC3EBC5085D08D806799B77D6C57FDF5E55837F9E934F09C03C729271B64F12D0A9F9E938107CAF7BF1EC8CF1BB9B42363D33070F4CACB425E605DDB0A34A12BB936DE286B9887A4E2E558F0886498BFF49C311D96C277CF6A9FC0D75AD0ECC5226D7E0
310
E3572012E56D7FDE4410CEC7A6D0F997F225A2055B8B92E3956E875AE4993CB3D4C9063AF98FD45E1BAB165640A43439A2C9181A7C355B297C0A0CCFFAE19B6FA3C2BA238A885FBC98B8F6DAF4B94B97304878DF4D8BFF6A4AEDF79E90ED4E68F00CD7299F4E0D83E35601AF0CBEF18C1E870E74758FA91F5131075004DB3C
310
FCF09AE1DABC11957FD9808C92E8A678CE9DBE40DDA0E0D1D505AAFBCBA208232BFB6FB3704E8985E61ADE53DE74152F5C7DE74B1DEDCD37DC3E8FB30D7EBA8B9EFFC3606BF90B8D438279CB7709FC7C00D327F41817EEA71CD9E49FE9C8C9A81C70915D9F0F15958EC5AA4C3BBFAF46986B90F188BDB24B89DE3C6F29EC3E
310
6F66D84856EE96A35E657CA41B41EFD8DBFA16AD6E91439EA92B40B21C053249F51AE50EB0B24C770FFAF40DF12C8436366819C48E36547D4E7B72FE2BBF10828583057814A668BDF183F6B2E58DFB151103E56303E63D00F39C27C4661605DB644D19175D02E3F0241E8FC3458D17AAAADB117CE9EEA690D0DB01E634878C
310
04C2C9310B69FCAB831151E3AD293BEF6E46B0ABCECB50F5939B39C613D41E81FAE8D34CAE3C4566B761D37185FE864AC32FCB71AEF39DAA5BAB88609BB980CD2F07A8F941653B529567726E2B2A58D079DD57E1E5E31426CF184A04D7B03B985F276D47406AF276FE32E3328BA866EB1FD39BEF57863A317634AA5FE46740
310
9B3873F5069EF0D71AF00AD189D17BA1974ECDB2D623E9E14086386A6AAB5807825C37B015BFE892AFD154920EC437EB945D958E18622E1E0FE2FA06557CE4BB9BBD05A2D40E774DA2B65473791E314B7D6C886820B2FCFE4AA272B3B8B15E7344A145E8AF919B5454D89D36D413E87211186BF6F645E5EC94DCCE8E1C7990
310
22E4EC9BC86D7A0F2AFB1FC4B2CE48F84B3F49ECE65BAD24CADCC07EFF39AB06BE9E6B27A059938EA7208838455383DDBCFCD967DDE4650EF92A14FF933C975DB20BD7FEEBC4487576485963D757D16340D9599FEB362F775F38CA4185A86F74B629C81B133644A3B18FD056E997E0734F9BE26D11C0AAFC669E2AC9FC41D2
310
81F8B2E1C35AE27BCE05F3DA295488096688719D974DF1B5D182DB7792288697F8763CFB43562C1CDEE11C4AABD5C22B6E33F6F389CFC3477C5919DC0D533F8A7A1846B7ADB60ABDC26C43D0CFC8910B7C15EE22675BD02702ED39DB77A87A192CA7A543E6205B979B9F5A6B512A3CA799E198B2D5797C0AF8D1D872CA455D
310
4D431A7879D4DD76110B5FF7F4176B54477A9EB5E4A5D11214FDA585F0382751D8E2582BA5D2075053298FEB8F1537304E32CB22C2E2B693DC0A760B1DFCA751BDC445AFDCBB12820ED85F6D5298933C7EF1211E9E057684056CDA3FEF3BB6052355E162DF27C59E965A8DDB7F9437EB72CDDA3A090DE65A5B2F50326247B7
310
EC67B73ACC7047FC9B353D6EE990F772207C6EC52B39DC2F3C0754821DAB559F7C1809C7D0DD5B0499D0442E0A6E391B3D5DB46D11E731E6794EC77523FBDAA242ED67F9FA1FB684255671F63C9BCFE6E7E896D51001A6113EF2298BA494E0B0980D1FA5B9D60796554C02256B1E0345FB7C6186B6A19D2DCA270416262845
310
FA4F42DB5D9B0A0B6F07FCA2E56C242522E001E0CEB734AF310FC8BFB57E38E03AACE93B3326A2197891E68452B26A6307FDABFEE0223D3C03C3C73D2D5BC054C8311F12004CAE488E5C29287F8156A2CAA4AD0D7BE6B97264E4139F437CE73ADF52E5134C52B819777C18B323A5924E4F67AFD13B1CDC3A61793A79FAF5C0
310
CEB718E441071E797C6DCCB9EFCF7E4A1E9F3DF3C2F9C9E8294E9586868788C972857FB0556D7A26941A7EEB9B580AD78EC40B85DC906B4120A563CA3B87797ED612D3B035962BB75F6515A393F4CB057F564CDF54F2E5A024514E6A1F901DB80C7E70B1FC05E356A7E72FABF4775B3E3FB8F70A2A8E7B6A94542BB3041579
310
78CCC999E707A29CC795E67A59CC546A5D47B368954CA7B6E75EC9E1F6FC73CE3B4F71F8CB1A6B15923D61EAAEB14626AAA9D04A26EB9C66CD1BE86CA31A5D8703DE04CD1EBCE4F5CCB62F93909AD11E55799A781A956ED27D3E738F4538CB04ADABC7DAEF20BC35BA6A90BCC1DC61BA05F20D8832FFB9BC9B15E2DB838A0A
310
FBB7E0C82A562127E0446894F427794C3037186F622BF24DE1B00AA10A23BFA47B2A180D6DA5AD6F7326FEB8C100C2D7142EB2A0B2A9D1008A09BA343D70E054AB69E2A7EDB783CBD92537FAF4A44D1296AC2792729104B3276C276C951D0CF3CF3F1E6B017720A7B8505A5FF9589365979678C36F1BAF759EAF57C60F1FF5
310
FE9DCF5F8E764FF25A2D06CF25117A8FED51884C13B2B750DB0E4F5E3D64124FCF11F0AD8F1CC3B3DA4B38ED22BF1CB2585EE6BFEBBA63FBFD44F9537B9B37BDD6B358720F98A8125AED4349CCFEB0E135F19E208A04CA7E2B10711185D72E381F448036EF57C9F874E54A971CA37A639E986AC0226DC5AA00D5B14FEA9192
310
234B3DE617814FC221C92F33F1D392F297731B567FD98FD91D989379AF567A65B8ADF177591DB90FBEA99BF4ED11B16E50A0AB1DBF1156D034BBE04D69D08F939D8E92BF525A1DDAFF80ECBC95D8F45D3FDD289FD23F7D8B452F8EBB34EC082DEEE68E18EDDF072060FAD2AB1504DD4879BF67099FC58F6E9DEFBF645D1633
310
4A3E9A127C6F1AF6132CF287E433B43A0EE93812B4AA0B194E03EE3FF91EF9C6ED0074A2F6EB18A96A7C9890B1FCDA1F2095E944DB911ED54C60DF16FB74C8CE9BDC7C54C4F14078CF73C2FFF1F1BBCCD7CF64F71407EA1683DBC410D226627F66E509060D5C0AFD611DE681D509DB8DD12FB1265B03C6F5C55FF4C30BD941
310
87FF692B4F152982502F193098A789526A038AB529A52BC0DC4FB6285CBAC10A8B8DB75DCD9BDABBB221E27D1F8DA9F5EE5926A1C8AA9BA9BC09239C6A7F12914EA3B59EFF7AAEC3FFCCE56F1C5C2980AD072793527565E774F4631DB178CEEC691B1F367BEA0CF2907E1D6B854D527065979DDEF002D8B2ACEA7CE21AE297
310
737EDE1D45B31233B73FEA35BCFDD0B09721FDBAF6432681F2FD10C3E9EFB246FD6E854B344ACC9D8A0EEF876A7314B49B6A499FC650B099D650DBFEC7638ADFD245E2B7839DA5AC5F7D5623FC0ECEEC8653FC9B2BDD1AD4D00A566FBA7186DD3C9CD26512551637498CADB950FEC71ADB9A5524285DE328B8EC7EC75D2345
310
AEC6A27C42AF6D9B92155315C80DBFCABBB7DA0FAE425C4FB896B15C9BFAC4FE67DF5A23D30C93DA4D8F36FB15D100050DA6062E22AEC5F4DAC4F6FEEF97AE05DE63C6D38F9E068A20BC5E3B6BCD75320C5090924E7F93640A7735B1A43451C2D91EE62C6238B797349E59890AF3A520DF4A87095F3ABEC2E61F0593416CE4
310
6CDCBE0E00E2523FCCD04408588B5B6C9DB6459C786CE378770B54F51DA3A5E1DF2A3349BEAAC234A6CF8993B598B3B25B4B113E353A4D750FA7534749430F3EBF2512E7EA3FD43C6AB9A1F765A58463B306721A15D224FAFE8C6F5E3432D57EE697DA0DD5A9D4866A8BCCAAA9DFF1F06047851408FEC060471D0E3EB86BFA
310
F46E4B5E60311DC3E3CEA147C75CF971BE74689507154FF2D2E92F15CDB2B9182B11459FD8ACAC5A85F174BC94A7F4EE4C4F5CAFA7C02E37BF0BC77B7DCD0C047BC316F562A01A441AFA7931CC84A28CB9F4AA367EB515778F29BFE61195FA671F4352E5E46E3A64773F1F76EE5EB36D7BCE9BCEAD837A4D77F8DB8C92AEEF
310
6711920D7C7D0F76B0FD0EB7AB83724CD35BCA7D36DDDF5FBB7FF6F04A91F3E2BB3B8F1A43CD659639507FF6331C5F697BCC782AE57D757A27D97F1AB9E0AEDB43F92F1B2AACDF5FEC8ADBAF9F814E2027003BA2F9E144B1938A7A04050AE5D953B82C45619165C813A10E76DD6906B3C16438064D14CDA713AEC420034613
310
E1AC7241904A49FBF87409AFB1FCB9B72FE7933A87D8FBEDACECE4EDCF6A4FE9FB94D5DEB74FAB7CFEAE17EE965DF980DCCA2D04134994F9A2E94D2265DA4FE6AA7B7AC15FACAC2B5ABBCD7DFF542C5314FDAB2E1B9D8B65220B8E2B638BE008E8DCA22678C820C5053664D15E89F2D735B51A84955E81A443545E9FF787BE
310
0FA700A76D136C27DA179A7C6E8939E01BE756E19CB292798063D8B97F44E8A27BCF3A614FEB8BE974A718E86F7EC99B53CA35FA24F61F2B07266684623A3D4CF073E511F3A10A8FDAFAF0078C577F4DF9D339FE7862E5FA47CF4344209E5BF76D783B1B48E152AD281B15FCB934DCDA49CEC5706B1EE8B460F435324A5CAD
310
154725E21AB8044B75A557A79F6C807B9340AA3D92503E866F4274412926C8C504E4D5EF8C0E68DD0B028781A6B4054F11CF18941F101C57CCC796773ABC8DED9CD91FE5788806C05E548895354AEAC96546D55B0E94A59F148D061F42AA398D822CDECA4CDE79E13469BDCC44FDC990F366BA5978C15F97ED80CBFD73B0CD
310
9B8B83A4F6845BDFBFAF034019473FB9A63BD55D3A4A7284757071574029A4D016DCCBE95DD679EF3C4880BF169422F8C89B68A988D2B13793CAED4F74DE7486C72DC94DF46B8E93D8E02EFCB1FF9B3BA10C8AE7F653DF94F4AF466CDDCEF5776687F7C4C14B63E4EED1719DC2EC482D7DBCC7AE518CDE3D5FF86D39000EC3
310
673C0044E1D308BF05F74D1B5F033A7D1BE7F74BC55BBE3E4A20F920946CA0271EB17BD2B80E5660ACB8A29A79F5E4BBA49D4D945B6EEF4A7EFEAA65E5555BBB57A7E15D2F83C69F30BBB978D2B39F1F26FC097424D39BB33CA3D87ABF64E307938B685BAD44F71556A30B7E712CA4FE600613C3E554B69ADE949A7CFE214D
310
F1FFF05CB82151EC6FC31950239F94CF7AD39DC473F6EA356E5EC2C4EFA04383CEFE985A127484366FBEE3C0EC4FEA363E4F6632AE781392FD45D67B63FB8DF70E82734F431FD3443172A0E30A83D60982D55FA6A2CF86DBA8382502ACC6CDEF3B907982EED1160E14863FA242F9757347E1544275CCDCF71ECD5F8621CBEA
310
326B8BA884AD7F825781923E66971F04010D574C541D8427A438A37EEF8AF88240EED7362C953F5A81DE2D56109CDE2524EA0F5D2F87308C0C47BD97AD605878AB8589E17CA83930CB5E0DCCD75853D68B1AB136594926DE426C367428E9334AFAFF90ECE221BB5DC9E5BB53D2CDEF954EAA9CD814F0E5725F1965DD458E5F
310
8487683AD86B9D0076BE3EE91EB1CECC5331A67A3F79D8B27587C12EC2A6A70474749F27B4C0BBAFB94B34189E88DC18964BE4121B9137FD516C7755356E50D6714E31ACD222621EBBCD1CFF81D87479056A9DA0E0B8EA19D24CF937DA89F78E8650CCBDC110AAB6C4E46DCBFD0446BA9E2060E81F314AC2031E88135E5476
310
AC0160EF5C0DD2EEF1B8B5CB2D198BE9A554A9093B5F7D7E4B5407DDFCA1D9C152FD97F55BFFFDFE802954DFEC8995B983E28AC92F1971E28F531DC407A1280EB125F64A72E617EFB27DFBCEDCDA2D6F2BDADA36873EE46B9BE1782998C63DA7182BC383FB6FD15DA472B175D7E8B4FC88F38D6E07FEAA3FA3CBB8F6B449EC
310
F14D2175E5C5CCA3A42ABF24CA6C9395AF74535F4DDB38CB84F56614B0FD32D7E19CA5CF988DB4449C40E23DF2B16772594554579094450F56F253CD25EA7F77366FB1CFE79696C428BB64D5A41E986189427E5E4D7E2DAE3D5BB4972B3DC44EAABDDDD63A2264ECFA5C786EB0EE1FDC5BE34FA0F08376869FD1E61EA06CAE
310
15191135445EE8F0394161C3266A596AA035572BB0C8876180D8B9C77D307DF9DCDF7365ABDA6F3A2366436457A4DFC1F259666569A9E4A79C817BDD5610E5200FCE894A358EC72858D50EF67545DA81C6FACE3D457BAF70367E1E6BDD9A952FB4F56247F58F523B97E640246051A72F79BE42FFA0B3187F63097F91C48B86
310
8586F714B0EBD5A00A8412C1236E1298F60C72BE6C96B82B404CADAA304AE9F303176B14BA53FBC2D5E86377E35542019E24D97B96A49B2C0E5006E7795954DEAF5DA58958839043C6C70BD3B1B33B6DC5C31316D8A6923F142E26F6711A2258AF977DDF1F970ECC4F1F2B434B96D81BEB6E89BF3BBB3C7C8CC80505070723
310
D6D7D7D3C8CA27CA164A26024FED94B12A86031867241DA53D929636DA600F050BC40CE48B8BA03D69224720DEE2ED2127390BDF5E6EA64527BBD4C4C63FA76BB801FEEC0E61218EC98A8A86CD8313781617877E66692839B9468CF4DB8E50A73986E558E309C0D6F676F921BE02F1185454DC75B111572FF9D27D85EA14C0
310
5AD7271225B391C4275659CA4A43759D0BA44639BE4C30A84DB7F67A41399FB95CBF923B1B1672ABC807C1590557FB18D811983FA97F5E609516D62281D38B1281F68FC75528C35E4CD7DF0F7DBB5E5DD69C414EBEA2F4A5B241B996BA77AE6C772E367408C633EA3E438B68563EA8BE7667F3A4C4FDEEA52ABD78A2820F44
310
3B7914A15F180018D231E64519C56A12F6CA7C8DAE18F06F6B769DBF92329EF6A5D18FBCE600F36BD8E8198DE5CDAA96181F3A756EBA5501CEE58F497EA4F418A2B82565B9BCC611713C0B708CCA1F398B78C5F7D03B3437CC18F13061F55C7BEDADD5ACB1DB0E36D3CE47FF6EA1A563A57E9649EA5D14D1A50EAA45746338
310
1C073777EF1600607BAF6428A7DDC079D47A204EF1E1F1F0589FB054D45E02CE623B3823C317C601E589E22B1E88B448524B86A82828E32345EC18AE17214B42F8C41C6D428016D9BA31DDCB47572561E5A402E5BA4FCE55F78AF7268524AA04130F3A20BA5D1E9F9948EA48FC8F5314FDB35E21898198060034ACE5E3E2BB
310
CA34092518F275190AF65F45867FF0900AA4B81F25427414C372BF51DC29AA855C5428EE1EEDD6B849AD60F6E73475C2D2523F8A2772C840A478DED18A8C5C91B085F255DC4F54EA7AA8947354FD17ECF8FB3B4A0DE7B483CAF3A1165EE05BBA413E5C1FEF3DE1D6B8F2F3F3251C17D9FCAB48A9AAF63AC773A0E413BBC46A
310
9ADF84A566FC920E4D8C52C9769EE3301CADEEEDD92B312E02E2A7E35B7F1E7D203FE5A7D75578B06E99D0E46FFADB8FDA17ED8880390DA29094202D6F645F76F6F96409CDA05495A96E84B04A00D1A6C6C81D7F3DE9376E828CCF144EE50E364ACCE7237EA0BFB5607ED1AC3CFE73794E5B61739D14DF1743441B1AC98F00
310
ECEDE9E7301FA29755FBEFA68C91EF2B314CF510537EF1ABFC9A762496280B546F5EDAAF8A5B387D469FC9A878A92828C88608453ACEC6094DCA54111E7AD5B2663DFE2DD151B7F123B9F4FEF8EE36AB125FD7AD52A59B1B765B3E3F73E3F73DEA93875004D2AFFE3CDE9493B87A9904DD052028949041A91DC0E1BA47BA71
310
4343FD5B25E0A6A09503AFC17C790058A836A324FE31D7893512E28230332F153181C1E018E1124EBE1BA262AA428A518237D1EA7275E48C5C561BD19ED6912EDD8367DA0F31E40EEAE9683DA9257525AEA7B632B97119E17145A90231768A4F3B9120FF32E8319B015E3CBE26F1A754177D8185345817C096B0CE443A955D
310
13AC15E1FB5DEEA0239EC32A3C92241A237B0B02FFCB4F93CF2B02570C8D192E2F2A68CEEB42F12E6F8CEEFF46C251E22B4341C56FB08CCE550E7A9D6F4D6564B9EA52A83D5BF2C6E03FA19D2775E15A8A7ACF30A13C259EE7F5EF2AC3BA354F1500E1A07FC63FB4686E2F12EC69719F9ECF5FE3F35598DF2CE944008CE78F
310
0911BA5BE5D0A34E0098FF038669C26030BA9B300303039852A8F6F496341737CA7E0D2E3AAA36DE0A70AA7D9CA0D54D9AD84B18A44C9E625475E1C97B93BEBB38DCE7D227E67A2D00F531436136355F243D1FC0D712C5765754FA22FCFFAE97919161F46D6E61ACB37D83777B385889770B50765B127768443A5C4D3A4E35
310
A3151111F146B7CA116F918A049F1C272F2CD7976C69A0068773451659A97E0F4A08FE604C3FF6CE7385DB19F4D3ABC8A0D80DA8A42096AC377DB49382B36E270B6FA7570188B4B7D1DDDDA82ACA487CCA5D38BD3BD039ADBAFA4ACFF27809239B722081E2EB9F145320553D183F28471C388BC8814E5045676767AB58A8E7
310
2D1CED2CA731379515D2E533E4CF0B39DFC625F97AC4836831A4DE330E87A8126FA17EBE583D614E71E22A8DBF2825599743E0640037303E8E1B1E8EA4E1ABFA4F62907B5E4E0E5DCFDAB417C36C6848A2B8D15F1E505434C0707E16B1CFC2A1C36A42BBF55734F8F4301DDC2A5110CEE8C0747F69519265012A2174BF4E95
310
5ECD4FDE095A3ABC70536B7AD0B9D7892F81287D667C108703C9B66A221E9A0929D030008F77FF6F5D2108EF5706FC87A3069B976F7C9FC3239D13D283CDEA83597461079FEEE049B0F392889898B7D87D31F8D60ED7B56B91823A8E4EDDB36C6172ECEE42BD42B12CD67994FA0F0DFAE9389356F4CD4425A4B8AA55CBF7EC
310
D585C6A2C2316791E43D5C06841ADBB226A87FD61515FFBB0167B74E56BD7F3E90A57A97FEDCBDF483A0D6699A8C0849CAEB4947FAA90D8E332D9DEBD9F4738C37DA0CAF9CF3DAA68BCB67C420459C7A64498D6E848E5CADE92BB6901F607AA331104A67F7CD650EE169B1DAE94D2C31C2F993632259B6957E246EFE4C5481
310
107B07118607700040E5812A2A2A38DA0076875258C753F60E0F2662C748EDD5F3F3686B8FC3BD6FE631ECCAA1E8B1C1E565AD117E54893E79F4672E32F9E46B2A183DFDCF3EECB4D4D077DBEA0DA254D256045109670050129E9B9B1A9E4A11344D61497A992778095151510C4BB7EF2009B63AA4360635312E4CF668B7E0
310
D3D85A8688E2BD83B569439892ADB63461930D428E0DE42E4AC57CE48DA5CC1449530D8BD3D6A0F08DF20C8E8F570F2CFFFCEA286E30969B4654D498A58D9DA782E19FE3F002181838925592C4A1EF0B332D88B61A92C644547BED490D3A42CFFAB70E36D961F694F6307F72FF15A1C79D5B1B5CEFD353D9E2B52566DEC8F8
310
F09CB3E8359C0F68EBBB7898243E34E12A015B2685AB303C04D3A9E00671FF3DFF0A184E4A2ABEB2B666AF5B3A209C73D8EF29DCDB069C9F391EEE9DD0F74C7BCDE16F8F02E3B8816122BBEB50665775B600549D8BB33A54A6BF940C028118BC6878C79958D6784F9DEAA6E26748386FFAF8D0D0101E2847B6563F5D8DC1D7
310
8F787BE00E2C941AE12148D4A81599FE8F68D4DA5CDED75530ADE138240300EE13B0FC13A1687FED6774662C05A2B7DFB186732F0D7A93545D8B0A6390AE5054D9CB582DA846D7A061B3358B45E2B52DDE63E114397EDB7E09233A579155D795BE76102CF277F4DF8B188C4F2879BEAE3C08347124BF9ED23B128259FE107D
310
31E34A652F090B30B39E0D9AF917B76A2806135621A8A60681F16AF216514BBD02711585B5B1AE823F4B2D0369EA5B6BCB863072727FFC871CA6C9AB79A814D989057E9470A3D238BC87CBB4A0EA49AFE2B86F22E499793CAA9047080450166BDC357524561E258C77CB697F1ABB32562CF87C3B7AA12F911EF19FB3E5C022
310
22E887D08202A60A17151F5E053A86B437771088B4FEE14D652C43E8D939995D34545E12E2FF93D4E366EAD25F10CB7DED141563C3D0C447AF06078A91135FD4B9611583CB4BF3BD167F2399CEAB0E0100F8FFC305F00F1711717173138B4B48C83022295DE657EFEDD97F238ECA80F528AFB4F8D67AD4E2594B9A3AA86D74
310
87EFC313BA95745C186F0CDD84CC12DC9CB0424B42203D351FD9C0A3AF10CC7F388E0329279087386421F194F4A29464C1DEF7EF8BE515E4A199DCD5B909342598D8FE6A231F71336248D5CEC5454455C7BE383B3BC7B260FED27F703FDC39A170F3827239102F59D4DEE7FEF82EAA1A5E4BA94DCC4CC44E7E2EDE20F24244
310
E4454369D2E87C3F823F193FD4FD27E1C23984B01898D15ABC20711A8A558054951A6AE280096BA36CBA439603B7B0B4C45F248C14B2383B4B5CD8ECECE4FF859AD4A6CA2326D020EF090F4041D28DB66E5256B56232CC52829DE8060BAE6BBF37D4B7469B822454FE93210A3E8D15E69FFCF01123222611C51C4FD0A041A0
310
CFA2471CF6BE38D2B20FA4C3525B5B8B586759475CF80ADFE67A284AC24651E52B8E683D24C2622642F27E7C3C22783BCF63648BC398BD6CD0D9C97E7E7E3EACB6126DB7A6C1FD9F1031302EE67ED96F22B77C7CA0239BB324207559B105E4693EB26EC46182A92C9C0DBD24F29B31C5C5AC1F84300E0E17CEEAC15F5736FA
310
4A98971E2F1423BFCD68D4BBD5F86E74B40A369F39507C88FCDB35D2DD8DEBEA4AF999E23CF2816D204200DF6E611781B9884C1AC8888B4DE397320472959434323A5A36B22A8E1F721A270DF3BD65E4A31C11FF048AFB0D8B7B6881423793963A23CFCE935FC189ED36FAE35C46DA3574C979E4394BE52084F3081837BE03
310
3396D2EBD80F1F691B273F660D2B32FA27A33B1DE4ADA5F0FA4651511102DFA410DDA86E065272CA314D5249DF91B06BB92807B28EFD54F08F7B525252782CD276DD02E6B0319B13DF87B1F6361AD6B28FC0D711CF445429B9E5A433CD493051C49A9E03DDB1B147D880253514A5DED88009018620EE229101C041950E2D8A
310
A8E1F5F5438E0C0C0C60EEDEE9E3E0C051948C69F84BB7B2A48A1F3C8EB9E6864687F4F4F6F6E2FA87608ADAF9C5E117B7C1A737E710769DA1D15ECE6A84502AA855398712D5FB51BE92E4EF824969CE18278798AC303C2C7980DD2500ADF8FB1E6D6C2FAAFF9987178923334A244758BAA01A9A1B70FA5097D01E1CC2A58D
310
AD0EC94CE6430AA9B0C10D75E3C6BAC670EFBADEE1607739CE0FC18A2587E3EC3058562014C64219C69BC269082D5C2F4A659278D585755912176D78A1B641719C2A394CED495A1AC5D583FD2F5EDD93308EA7EAE8A6DD396598BDBD3D4CFED62D18A5BDFDE0DD5C80D1A89BA62697B131AE7CE9A6594138582F1B37D68F17
310
49AC7CB67A70695D48A4A056AC1FBD4E82358CEAE38F54B95A9016F9000F9879C0D9D131768635CA798895F27D6F1614F11F2838A83611AA51C9A3DDB539D42979C29F10465655C17BEC3E2760B80DCBF609198C7B171A531905F3EC218D696025975E986C6B4C666666787271F202805577DD5A3EF0CAFAF91B62DC4B2DB4
310
217A7606282F31D8DDBC290593BAA93EA6353AFA9939B877978481E15CFC9F2755CDC00C538F63A4BA3E80AE009B73CA0185687D339A507D165B74290D6EE46D5C58148F020C3668ABE9EF2F7549170DC80DB41FFC1D678FF19AEB10C7133832B104B80F691B3138F97A92D26E551F1F110400D45AC71A9B9AC41A1A1B1DAE
310
ED0B0810638EFFB511D46B121C6FEA0F38CD00E03CFFEB9713FE1F9C263E4DDEC160D0497FA9A132BA608584057FB15380825DE6C7FC3C667EE947D488A09898D8E939C4953BF4EC9836344D2CC6B2971B2A21A572B06096F4982D2CC7232D46E8EA69DC83722E267754D777F97F96D5DA74E1E75178084D0E70F12AD33E5F
310
71EF2AFA599B2BEBF60A5BE475F444F240CBFE8143C334E7ED9150FEEFEF7EB020C4DBED388DD1D6A167A76F3CBF119B578AE8CFA7736ACAFA4440A1C47185638A0D2F3EB5BDDEFDA958FB13CE4AA4923D5BF840392D45544329525749734866684BF7F8D9D54D892E19BCA9F829A0F8BFCBEEA6CFDFC61D74EA1A645ED7A1
310
FF241739F15694BD835B66FEC5677E40FE69BD3F91AE402F036537218A401CB0828604AD189E575015C6F3F6BBC8AC79CF6C70653847254B31551EFCBEB5978B9DB85D58D0FA41A9DFE9C624834AA04949D24B5AE6D299E072D152D12097920F14AA92C31C3B97E28B6C2E6E9C23D63043ECBBC0A60FDF5BD0C33C127EA8A3
310
308B8B6AFFEB28B4455BF6E7AF4FC6222728357EB8E46E85053E6A8843AB23295BF838ABDA94658FEF3F832F147046B4ACD6F7D48E8FCC9618582961C898D1C7A253C91BFECBDA6BA18A1FCF70755DCCEE2222F41B76D23CA98D0CB3D95F0CF66D57FFF65E2A90F5DF40FC3187621E981BD0BC1D992787212688976B94A8F0
310
C6EF646624B570B78E068826F87CE27041A95C9A4871FF65CC17FCB1639629AD6A9517000D63AC231F3D741CB8430777E7ECF80CE7A3F73C0F162F7E56AA71F4DA80A33CD6ACEE78E2C11FAC03DAFCE929B106F8F6B3ED2DC71FF994BD9CEF4E9A94896EF1B6E2B7B4978168BCF0847A3D2A4F1B0500B926E634B174548E9F
310
BAD27153FB5FC36799B1E6C7C38A94E1F9E996796D7B485E635D5287A2AE76FBD11A341DB3F8F810385BB7296391973DC6C37C452A9305AEBBE0CDB6C566DB59FE60C8E94B1FD090354BF51439FFD1B48D725228FFA88C84F686F547107A7A235665A4593B7C34D748C1AC8D56DD5DA861EEFBADDECBBD65117E65851F9035
310
1AEB65F0EFCFF4BCFEF24CB7A5879699FAC437A7AF9099186CF006BB923A59E37D7A36A29FD8D2CBB914A5E9D0A8FD212FBF796AE9A67958FF1D5D8B85F78F96219D4714EB919929241B6C018AAE0C02069F8D919961EC5DDFBFB7573E3AC8E08BFB7C8534BE6DE045B3CD63DBD71F7638BA2309CAE398EA3A7D8F98BBBC7A
310
EB367EFA5CFA27A9F8F2F52FE878058E6209C026453F8E7E8A237DFC389E9590F6059B397CFD65183BBF936E86896612A5B5FEE49DAC8455D026218AFEBEC12B3523A45B57B82C9C97E02ACFA1184DB18E48CF615DBF39C3CC6F0B4AE6BBEEA2E39D944E290302FA3DE33FA7E40296E2EF7BF1CD855BBECFAD0FD622BEE974
310
6FC4FDFDE545AE6E3BC234CADF83A0FB76DFB145BF3828AE3436368AC24989454F8FF70A177672C711CAA1A76107218CF948CA01F873520E7A2B118EBB161ABAD432932029628B6761590C98AB590C8C8C79798CE9F715BA696E839E9131A4BB68BE923F1747FBFF165331FFDD4D05997ACD168F12CA75348DAC04C7F509FE
310
83898A8B421181AF492861CE81E4A2DD0A30850CFA95E05F097FF70F9E777310D584A75BA7018922E271DAB1D785671157685B7D383D3E074DDB4F1E44EF04B07BAAC75A062077C54B9752C738C9D804D402E02851F3F89605AF189738C18C021D2139EAF72513824E10DDD3047BACC8521ED7E98B257D1166903B1B08FA6F
310
918FD7E162913FEC7D0EF4787E29C35FBA8C6E2C9C20E9AB30AE42CA2A01A090E7D010C1B5BF9CEE2A304BF3A987FB40D836979B79E18D70F257DA61E808472DD85B82761825779D6B90CAEB0F23360C6F80A7D7D77545E95B3DFF0CF96A827F9B5BCECD2C9698718417EF80FEEDEE938AFF55859D0D540B7FE09435583A6F
310
04874A0C7E8CF234DF4879722000167F5872CEC6BF3EF7E5A8CC8121E6A359227C8A29C95212F9F735BC72A887D56B8F309FC525BFB4FD767AAEC4AEFF249CFBBD2DE1AB9969A6155C7D8DABC307E47324C1F916C7BCFF40ABA5644E9FFB9238D19ADADA49D9610F01ABBA57E4DFCBDCCBB2B93C8953206C91DE01B0E2651A
310
6D6C31721915B31F7B7CBCE55466F6D70402788FA91D73BE4ADCBA99A35F17D6B83383704917D6833F0FA3CD45C926ADB8BC17999A4A0AFBCE2541F7B8CF4C2F5FBA611B3E626D64407CB32C122DFF4EF8674D6EDBB86C8F7C6A16D50FA685E2CCA34F8F7D1D8265BB0042E9D7F1F666F7BE5FAA5184DF58E12122A42EF02F
310
461B3F369AC746F96528AD208512AB56844CF75B97F352DF7995024FB02855385854F3798670D01CAC771AC3E1889EC25F61A20C1F8CAB46898817F9C47E2CDA1F286BF2F358298709FE567C91133E2638C8B53975E753EA8BFD3578B5F7186B7BF084EBA3F77BAC3132A5779902EC22AF2D2E79F42D324E083386DAEE9810
310
D1B44A5DAA54513C7A71E52A4AB9257D975B621308FE4D2141CC3DCFE946C154A3C1DFCCA7629EC69ACFA831634ADDA93C0388D2A9A2DDAFCF957C6995BCE7FBB6DC4EBAE79E63EB08E9A25F52F67076F7093CA545CA3053B5BF576DEAD4E0017143C5F759F32B2D6F145B52B67B48909B7C7FCA6586EE385A2189C16932CB
310
6DDFD9152AE317C430492A578ED27B72D85D40C7C93C097939E1B50F4D67F05334FE9DC362C30B7FF561B95259138ECFD9274C8D695C31B14D4EAA9F3D7FA8DDF652F8C5DEFA23284C799B7D94416DEE81E05A866302DC70192A5368EA65E1CED8BF107A1E2D3119A71E85DC1A7B0C1E93274CE04DD0F2ABC8AC7C987FDB00
310
2B6F81757B43502EF7A0D92E416494FAEEA4C9C090CD9557AA4D532F4996A272B94355C5A0E4974EEA9627476F30809B94D8D8D860062E02204643BEC7D0438AF800FC7E2B26955D595421E83C69E1A07E0E3122285835F014AD538188CF9737CE76D464A353FA55A001AB2526B84E985083693BC76FE211CA1D000679C889
310
E3C009832C87E1AC2EDD05C302557422DF0800E316FCAC86978A371F025A6C7DAA9F333E7BD160403A1A06EA75AA9888FF01504B0304140006080800247BEE5451464CB48900000043010000360000006662782F38414535304639332D424531382D344638452D394337332D4635303430363634423036352F646972656374
310
6F72792E786D6C9D8F310EC2300C45AF127987122606C71DD918B841D4B851A43646695A717C52A85029031293A5A76FBF6FACEF7DA7264E43906840EF0FA03836E242F406C6DCEE4EA06AC22492573150D1F66C60C640E8938CB705396EEDD86DE9B5042FE27813D640EA63BB001C722AF6E55CB61E4863F58284D5D3F53D
310
D715CE1C3985E63FD7F1B7EBDD617E9F1E504B0304140006080800247BEE54F7B1C66746070000541C0000340000006662782F38414535304639332D424531382D344638452D394337332D4635303430363634423036352F6F626A656374732E786D6CDD59596FDB3810FE2B84F665F74196E42B76E1B8F011174691B6A8D1
310
C5BE09B44C3BDC5007282971F6D7EF90226551916DA507B0D804881D8A1CCE7C738F26EF8F21434F84A7348E6E2DAFE35A884441BCA3D1E1D6CAB3BD3DB2D0FB299AF038CE2AFB2C14E190DC5A62D99A4E0E3CCE13B5B4237B9CB3FAEA6AFE174A0312110B050CA7E9AD95060F24C41D9C67F18EA48F9D1DCE70E7B03F76BC
310
4EB1D1247BE03879A85D95604EA20C5885F508A8280E3CF35F10C9994E1CB1C1D8D66BB7AD7B619B23053719A5519AE12878C555EDBAEE19AE6AD7F5BCFEF2AE3B18DB837EBF67F7875DCF9EAFE64BDBBBE9B98BE162319EDD8D2D349D6CE398950A4848B4032DBE58536FE28827A5F80A8526BE83388A48A0D06CDAB0238A
310
2E25691D1303584F8A565148216B65A1D752F833DB5A8162B064A0AD85D39F55EB8DB77F0308691B2BE52911569E661C74ADB02FFCC19D38C5AAA1179AA210678453CC10A35B8E392808B6160A32C8086F11A490C04C6A51D3ABF20A867DDD979AB8DCE78C09FFB5A6D2D37CF04792A59233FA0FE127EEABB7014F206D4EA3
310
6CA484CD5E1220319E3872B178D6EBAA87059068CFF001AC05C4149B7ADD1A5E0B110BD64B6BFA71B53D6E447C68BE3CE1714278262C4F3AB3F23BADC18A6981F1B500A5C0D5D4DD0995AF00FD2740BEE4054D40739C1EFBC7BE969DE328DDC73C04ED2017D92EFC7191F8FAEADBC4290F4F113262E5394CC16D7F12A68618
310
C6DD1548A7932730FA98F794709B0033B0E97B1A093F0743412C862588F7FBEDD19AAE2198C2229CC20CA487DF8923BE22F828E840BCA969A829FCB650947698BA9F9D74F5016C86D3A0549521E3397C073F05DFD972F37193F33D0EC8BD72EC25D9D38866904C9B193240375CFEDBFA93F4C80F2CDE62763A6D6C0AE09A43
310
2CE246835A364A2D48EA05381169B8D08C5CB9A7E0ED8CE188C479AAD69BE25410B398FBDB17BF70E1C6BBFED436505CA60CA0319641720F384D0426D65469AB0C849D8AA06061982B0B3C145AF5B77998F8388CF34884DAD7A658E703E28CB044A02AA969C3D65EABC9EEE87E9FA710BC1A492E0C20953F6BC28585F7218E
310
35F1CBC99E6348A271E453C8C1E02C8D37181794E05DE639256CEF53C6F2D0DF530679C40F7172867E4B09AA99EB91BC3CC77CD748D0B42CED93DA8604E00A580D92CE5645CC573AE5E4898A3253E6339D0D8C1DAA0EB5A6FD33E942648A0640B5314A331FAE46B3EEEA666E8F7AE395DD1F0D97F6683E73EDEED01BADFAAB
310
EEF8EE6E56E75347AB6ABE03558A32C7F0BFEC210FB711A60C1E08B1F12E79F75E66CF5B0742A3339ADD0DDCD5B867CFEFBC91DD5F8DEEECF1E2A667AF066EDF1D0EFB737738703849E39C072475BA8EEB6B934CA2C339AE3477AF63289435D7939DD6575D98FF710CADE7044389FFD5205AC6AE8682B06D101547EB211407
310
8F2245F901547D8DEE530BA2753E9AE2DC1BE3B2DBE9B9F2C7F3C65D77DC1D8D078396614FDEF4C391AE4986003ACF3CF3E30407346B4EA935645AB2FCA6ECD2E97983021BFDB7DB458057EBD592A9CB994931E5D3101F88BFC7A2AF6808A5D7246ECC7A0716A7298D482AFBC257F5628DA6DB81F2CBCCD20D664B533F2419
310
FE1E8B958D46CD0B209A331F3AD84CCC10AED611A50BA89EE51C45D12F43AA97F2BFF8290E1356F4C6D730F0BA1A02DD153559A8605A5CF104F6E9E3CC7777448E3AAE512FD9D71545A3D6EAD4C7DF4DFE0C3CBA12FA85F0E82BDA175B9D8137163F230843C381D71BDE94AAB88696BE2C13BD1FCBA15B0D5EFC67420F0FAD
310
8AD3765AA9947945219E91105A5F9CE5BC95C70E219A68DBD202A9C8507389CA4D6F2C2865CFA7BB3EB84C367DE74AE2CA3550BBD2086663AD04792545A3114B5DC839A01877BDC1B3353657A9FE70C4FCE55576D5FD423930BA8E0354D8450856F1C7A8C31B2B75A3864A9F71164028DDC84F7B0E1EB123BB533367906B2A
310
EB754D7BADE25E8B901AC294178B487B2FBEB0AF18540D1D77EA7C280A3DA7585F8BD4D68181F6890F836993D6E70F9B1A1558697DFA8BC0883CD728A8D585E8A02F90FAB63ECD096A149444DFD6178EFF27BA10ADC0CAE80D26C869CC280CF2C90E1D480CF91B46152D3A141E9254E665305E15A4F45B8416A79F8A396C86
310
B74C9F0E1E300CB399EADFF20006A990336F2DB58E7E83D1A9985ECA8156E7115A3715C32C94737A6B81C566143AB4CE16466072E028A9D7469CE0D8383A888C5F9C2AFF3F1D13E840543AC955EE69838B92CC7026288513F96E01EABEE2C174F2FDA26B7610CEE0EB36CF4A614E0B27691408FA2542211C4C0A1F15BC4728
310
292ECBE575E41E039256D3FC8B765050B533CC0F72245FC17BB6FCE28869FAFA334A587E10EABCD4311B946CD1A9B3BC985C4DC0309498091655E4E29DF385C7F05A2A442B0A46807E3F8E867F388B380CE3A8587266EAE516DA3CC0ABAA9DA3C784D0FABBDEC8919303F52AC0DFE29474F02E7D8405502DA7629E5A406C18
310
40194D2B06A035227401C78CFDEB2552D55165AA520DBB021EF91E00812389F73FC26DAA1B2A434BF005E04A3E3C7DD10B1387C3E07CFA2F504B0304140006080800247BEE54F3A155FAE1000000550100003C0000006662782F38414535304639332D424531382D344638452D394337332D4635303430363634423036352F
310
7265736F75726365732F322F636E782E786D6C4D90DD6A032110855F65117AB9EA4A434370CD4BF42A37C1EA642B5167F1A7A46F5F4D2DF46A86733E8633479E1FC14F5F90B2C3B8928572324134685DDC5652CB6D3E92E9AC64422CFF3032451D60255D264A6E09EB3E240B375D7D57BD8BF721F2EB06119233D73D6E6432
310
5EE7BC926C3E2168AA6B410BF94EAD2E9A2E3441C69A0CB413C50518274C025DC01225B810337F9B97D7F7E5701287133F5E24EBA4921F887EF02E1648B8BF086EB0ADB125E2927540C99ADCA0FA1BCDF88B475B3CC99AAD642EA97530B0F2BD37CC05BD017B22BFAE92AC3FD9C6B381367B21EA07504B0304140006080800
310
247BEE54FF15A4A45D000000800000003A0000006662782F38414535304639332D424531382D344638452D394337332D4635303430363634423036352F7265736F75726365732F636E782E786D6C4D8B3B0E80201005AF42B6F75B59F0390B113044D83508C6E30BC6C26AF226F3B8BA6360974DA7271430F523308B2B198F
310
9B80925DB700539227A2FCCB80A18E5640D320F996A81C9F32D6E9129A0D1EF74FCE750E6D57BC7165FBCA07504B0304140006080800247BEE54EE320C574301000056050000300000006662782F38414535304639332D424531382D344638452D394337332D4635303430363634423036352F636E782E786D6CCD94C14A03
310
3110865F650978DC6477B1584A36050F3E8107F196CD4ED7D86CB224B362DFDEA4A6AD22450F057B0B932FF0FF337F86AFDF4753BC810FDAD996D4B4220558E57A6D8796CCB82997A4580BEE9DC32F1829AC1CA125A94C041FBC9BA75CEA61236793AA46DB6D2E4A44AFBB192190421919424B827A81515239A3EB216C692F
310
51D29A7A086EF60AE27BD423E4F7CA8344E88968AAA629ABBBB2BE7DAC17AB66B1AA96CF9C2552F0CE3993796D11BC9B6E9A4AB978B4514EC55902049FBDCE54F240C4491BEDB4E52CDE0B1EA25E3B640E7753E2A6C9682531368A3985806584408E9C7DC282B3E4F89BEF87FBA7938678EAB50785CEEFFEAD0DF5B9361CA5
310
D19888BF75610FFE66DE75AFD1F2FFCDFDACE12CEC62760FC90D31BA3F9310F324ED60AEF1031CA55D3EFF71B1A056D768FAA0EC429ED97E05C6C1A78D283E00504B0304140006080800247BEE5433245CF27E000000A30000000B0000006662782F636E782E786D6C4D8CD10AC22018465F45FE7BCB313507EA68A1EF319A
310
1BD2A661337AFC3476D1D50787EF1CD97FB615BD5D7AF91814342702C8857B9C7C5814E47DC60250AF658A71FFBB010AE3E614540C5A2E29E6E78126378F79AD74F5E1714071358CD8AEC5836904A65618DCDD2E2DB68C50C2391D0867C53857A5CCAF57B6E6F517504B0304140006080800247BEE54A6D797065F00000082
310
00000007000000636E782E786D6C4DCB3B0E80201045D1AD90E9FD7516806B51190811670C8A61F982B1B0BAC9C97B72CA7B1037C6D3332918DA1E04D2CAC69353902EDB8C20262D23F3F59B81A079470595414B17391D1F19B4730A5583A7ED43BBE4025D9592775E5ADFFA01504B0304140006080800247BEE54ECFD112D
310
A800000026010000130000005B436F6E74656E745F54797065735D2E786D6C7D4F4B0EC22010BD0A61DF525D18634ABB506FE00510A79458060253536F2FD89D5197F3FED3F68B9BD80362B21E25DFD40D6780DADF2C1AC9671AAA3D677DD75E9E0112CB5A4C928F44E12044D22338956A1F003333F8E814E5331A1194BE2B
310
0362DB343BA13D122055543278D79E6050F344ECBC6478EDCD76CE8EABAE5449AE4298AC56946789C28AAFBEABC53F3EAF09A84A1441B91F0101CD4780756578C173A578FFDDBD00504B0304140006080800247BEE543DEE336E64000000790000001B0000006175746F6465736B2D64657369676E2D7061636B6167652E78
310
6D6C35CBC10E83200C00D05F21DCA56CA76D41FC96062B120735B69A7DBE268BB7777961F8D5AF396893C2ADB70FE7ADA196782C2DF776D7A97B5933C430F15651E5469C55D70F80A4992A3ADC954792C525AE70A1E4D6AD9816CC044FEFDF01FE3FDE907802504B0304140006080800247BEE54060B31F1F40000008E0100
310
003D0000006662782F38414535304639332D424531382D344638452D394337332D4635303430363634423036352F7265736F75726365732F322F636F72652E786D6C8550CB6E833010FC15B47703061C68641CE541BEA0A7DE2CE3102BC1467E54FDFCDA814AEDA9A75DCDCECCEE0E3D7CCDCFEC535AA78CEE01E72564520B
310
332A3DF510FC0D75901D18B5C6F85F34C8349F650F090646276BC2B241C2682F7542B519E50672E7A4874C3C63D383137739F39C071F19EE912F5C3CF824739CAF3C464350E3265563745337252DB06B5B77F8EDD820BCDB9D514306824E57724297733B0CCDA5AB8F04D3228919F56AFED92EACE45E8EC0AAB2AA50D922DC
310
BC63B2AFC8BEEC3E6891988C3A6FE3CFDBD2F45DA4D36245FFB88565FCDF2D28EDEB6A735B150E583AEE3560B448E9C4F28A2ED69424FB06504B0304140006080800247BEE54B43A7960F9000000960100003B0000006662782F38414535304639332D424531382D344638452D394337332D4635303430363634423036352F
310
7265736F75726365732F636F72652E786D6C8550CB6E833010FC15B47703E61168641CE541BEA0A7DE2CB32156828DFCA8FAF9C5814AEDA9A75DCDCECCEE0E3B7C4DCFE413AD53467740D31C12D4D20C4A8F1D047F232D2407CEAC31FE170D122D26EC20C2C0D9684D9837481AED5147549B01375038871E12F95C9A0E9CBC
310
E3245211FCC2708F7416F221464C69BAF2380B410D9B540D8B9BBA29B4C0AF4DD9D2B76345E86E772655DDD7E474AD4FE4726EFABEBAB4E5B1A62C8B62CEBC9A7EB64B8BC2E300BCC88B82E40DA1D53BADF745BDCFDB0F96452667CEDBE5E76D69FC0EB845678295E858B64EFFB88679F8DF3528EDCB62735D150E783CF235
310
E02C8B292DE515E15263A2FC1B504B0304140006080800247BEE542F11072EF2000000B1010000310000006662782F38414535304639332D424531382D344638452D394337332D4635303430363634423036352F636F72652E786D6C8D50CB6EC32010FC156BEFD8E0579C08133595FD053DF58630715062B07854FDFC42EC
310
4AED2DA745B333CCECD0F3F7F2C8BEA475CAE81E488E21935A9849E9B987E0AFA883ECCCA835C6FFA141A6F9227B4830303A5B13D61D12467BA913AACD2477903B273D64E2111F3D3871930BCF79F091E1EEF9CAC59DCF3227F9C663D4ABE5572AACE45E4EC04A5C96081F10A93F48732A9B13EE3E6991988C86A0A6DD4A4D
310
D15D5D95B4C0BAB7A1C1E3B142978174A81EBB011DDF0F151A1B5CE3B6AD2FB86D6891C48C3A6FE3CDFB27E9BA57E59BF05FE6B04E2F6456DA57E56EB8291C3012F33C178C16A9C0389EEDC699CA663F504B0304140006080800247BEE541F735F8E53010000DD0200000C0000006662782F636F72652E786D6C8D52DB8E83
310
2014FC15C33BDEAAADDB204DAF5FB04FFB4681BAA40A06C1F4F317BCC4F5612F314132E79C993313D0E1D5D441CF7527942C4112C620E0922A266455026B1EB000C10123AD94F9D60602491A5E020F038C2AAD6C3B415449C3A547A5627C0249D77103025ABB4B093AFAC91B12126B5C47F70C5B429FA4E261128E7D18592B
310
D8342A9863130FC135C0B7DDA648DE8E194CB6DB33CCF26B0E4FB7FC042FE7DDF59A5D8ACD314F50E4873132A299D5A9E6C47006701AA7298C7730C9DE937C9FE6FBB8F84091EFC4A833DA799E44BD3B801FF7178A467CC5675BF6379F15D26CD2896F9CE800F6EB0D058C229F8FFB0DE1AD3374C22E3F43EEF56CE1E9A09E
310
53A374E62A4CD9A5D493DA72471D07C387A2B1EA9807829F78D25F787EE770411159B9D58871D7BB355E7DBD53CB35ECCD2B904A37A45E961B575CCE456865691EA7AA56FA3FD3B3D539CCC83F4CFC05504B0304140006080800247BEE54FE52FE6408010000B201000008000000636F72652E786D6C8D50CB6EC32010FC15
310
B4776CE347EC4698280FE70B7AEA8D1AE2A2D860018EDABF2FC4AED4DE7A5A3433BB330C3D7C4E237A48EB94D12D90240324756F84D2430B8BBFE106D081516B8CFF2503A4F9245B8830303A58B3CC1BD41BEDA58EA836426E20774E7A40FD181E2DB8FE434E3CE18B0F0A774F66DEDFF9201392AC3A46BD9A7E567B2BB997
310
02589EE539CE6A4CCA5752EDF36A9F356F348D4A46974589CD4A89E0AE6E4A5A60D7BA68C8CBB1C464B73BE3B2EA2A7CBA56277C39D75D575E9AE258119AC665469DB7E1CFDB9190D323C71FD197A62BC5E8BB31E32608A104327AFC0296D134127F422FB3F84768A57D916F07D70D072C067A12C1383618C6B3DE3063DBEC
310
1B504B01021400140006080800247BEE540000000000000000000000003700000000000000000000000000000000006662782F38414535304639332D424531382D344638452D394337332D4635303430363634423036352F617474726962757465732E62696E504B01021400140006080800247BEE54000000000000000000
310
0000003500000000000000000000000000550000006662782F38414535304639332D424531382D344638452D394337332D4635303430363634423036352F76657274696365732E62696E504B01021400140006080800247BEE54F270F13306000000040000003600000000000000000000000000A80000006662782F384145
310
35304639332D424531382D344638452D394337332D4635303430363634423036352F747269616E676C65732E62696E504B01021400140006080800247BEE5488E57597CD3F0000904100004200000000000000000000000000020100006662782F38414535304639332D424531382D344638452D394337332D463530343036
310
3634423036352F7265736F75726365732F322F305F67656E657269632E706E67504B01021400140006080800247BEE5451464CB4890000004301000036000000000000000000000000002F4100006662782F38414535304639332D424531382D344638452D394337332D4635303430363634423036352F6469726563746F72
310
792E786D6C504B01021400140006080800247BEE54F7B1C66746070000541C000034000000000000000000000000000C4200006662782F38414535304639332D424531382D344638452D394337332D4635303430363634423036352F6F626A656374732E786D6C504B01021400140006080800247BEE54F3A155FAE1000000
310
550100003C00000000000000000000000000A44900006662782F38414535304639332D424531382D344638452D394337332D4635303430363634423036352F7265736F75726365732F322F636E782E786D6C504B01021400140006080800247BEE54FF15A4A45D000000800000003A00000000000000000000000000DF4A00
310
006662782F38414535304639332D424531382D344638452D394337332D4635303430363634423036352F7265736F75726365732F636E782E786D6C504B01021400140006080800247BEE54EE320C5743010000560500003000000000000000000000000000944B00006662782F38414535304639332D424531382D34463845
310
2D394337332D4635303430363634423036352F636E782E786D6C504B01021400140006080800247BEE5433245CF27E000000A30000000B00000000000000000000000000254D00006662782F636E782E786D6C504B01021400140006080800247BEE54A6D797065F000000820000000700000000000000000000000000CC4D
310
0000636E782E786D6C504B01021400140006080800247BEE54ECFD112DA8000000260100001300000000000000000000000000504E00005B436F6E74656E745F54797065735D2E786D6C504B01021400140006080800247BEE543DEE336E64000000790000001B00000000000000000000000000294F00006175746F646573
310
6B2D64657369676E2D7061636B6167652E786D6C504B01021400140006080800247BEE54060B31F1F40000008E0100003D00000000000000000000000000C64F00006662782F38414535304639332D424531382D344638452D394337332D4635303430363634423036352F7265736F75726365732F322F636F72652E786D6C
310
504B01021400140006080800247BEE54B43A7960F9000000960100003B00000000000000000000000000155100006662782F38414535304639332D424531382D344638452D394337332D4635303430363634423036352F7265736F75726365732F636F72652E786D6C504B01021400140006080800247BEE542F11072EF200
310
0000B10100003100000000000000000000000000675200006662782F38414535304639332D424531382D344638452D394337332D4635303430363634423036352F636F72652E786D6C504B01021400140006080800247BEE541F735F8E53010000DD0200000C00000000000000000000000000A85300006662782F636F7265
310
2E786D6C504B01021400140006080800247BEE54FE52FE6408010000B2010000080000000000000000000000000025550000636F72652E786D6C504B050600000000120012002D060000535600000000
  0
XRECORD
  5
179AD
102
{ACAD_REACTORS
330
179A8
102
}
330
179A8
100
AcDbXrecord
280
     1
270
     1
271
     1
  0
XRECORD
  5
179AC
102
{ACAD_REACTORS
330
179A8
102
}
330
179A8
100
AcDbXrecord
280
     1
270
     1
271
     1
  0
XRECORD
  5
179AE
102
{ACAD_REACTORS
330
179A8
102
}
330
179A8
100
AcDbXrecord
280
     1
270
     1
271
     1
  0
XRECORD
  5
179AB
102
{ACAD_REACTORS
330
179A8
102
}
330
179A8
100
AcDbXrecord
280
     1
270
     1
271
     1
  0
XRECORD
  5
17A31
102
{ACAD_REACTORS
330
17A30
102
}
330
17A30
100
AcDbXrecord
280
     1
102
ACAD_ROUNDTRIP_2012_MLEADER_STYLE
298
     1
  0
XRECORD
  5
17A33
102
{ACAD_REACTORS
330
17A32
102
}
330
17A32
100
AcDbXrecord
280
     1
102
DISPLAYNAME
  1
Imperial24
102
FLAGS
 90
        0
  0
CELLSTYLEMAP
  5
179FE
102
{ACAD_REACTORS
330
179FD
102
}
330
179FD
100
AcDbCellStyleMap
 90
        3
300
CELLSTYLE
  1
TABLEFORMAT_BEGIN
 90
        5
170
     1
 91
        0
 92
    32768
 62
   257
 93
        1
300
CONTENTFORMAT
  1
CONTENTFORMAT_BEGIN
 90
        0
 91
        0
 92
      512
 93
        0
300

 40
0.0
140
1.0
 94
        5
 62
     0
340
DE77
144
0.25
309
CONTENTFORMAT_END
171
     0
 94
        0
309
TABLEFORMAT_END
  1
CELLSTYLE_BEGIN
 90
        1
 91
        1
300
_TITLE
309
CELLSTYLE_END
300
CELLSTYLE
  1
TABLEFORMAT_BEGIN
 90
        5
170
     1
 91
        0
 92
        0
 62
   257
 93
        1
300
CONTENTFORMAT
  1
CONTENTFORMAT_BEGIN
 90
        0
 91
        0
 92
      512
 93
        0
300

 40
0.0
140
1.0
 94
        5
 62
     0
340
DE77
144
0.18
309
CONTENTFORMAT_END
171
     0
 94
        0
309
TABLEFORMAT_END
  1
CELLSTYLE_BEGIN
 90
        2
 91
        1
300
_HEADER
309
CELLSTYLE_END
300
CELLSTYLE
  1
TABLEFORMAT_BEGIN
 90
        5
170
     1
 91
        0
 92
        0
 62
   257
 93
        1
300
CONTENTFORMAT
  1
CONTENTFORMAT_BEGIN
 90
        0
 91
        0
 92
      512
 93
        0
300

 40
0.0
140
1.0
 94
        2
 62
     0
340
DE77
144
0.18
309
CONTENTFORMAT_END
171
     0
 94
        0
309
TABLEFORMAT_END
  1
CELLSTYLE_BEGIN
 90
        3
 91
        2
300
_DATA
309
CELLSTYLE_END
  0
XRECORD
  5
17A0B
102
{ACAD_REACTORS
330
17A0A
102
}
330
17A0A
100
AcDbXrecord
280
     1
102
RTVSPost2010Prop28
280
     1
102
RTVSPost2010PropOp28
 70
     1
102
RTVSPost2010Prop29
280
     1
102
RTVSPost2010PropOp29
 70
     1
102
RTVSPost2010Prop30
280
     0
102
RTVSPost2010PropOp30
 70
     1
102
RTVSPost2010Prop31
280
     0
102
RTVSPost2010PropOp31
 70
     1
102
RTVSPost2010Prop32
280
     0
102
RTVSPost2010PropOp32
 70
     1
102
RTVSPost2010Prop33
280
     0
102
RTVSPost2010PropOp33
 70
     1
102
RTVSPost2010Prop34
280
     0
102
RTVSPost2010PropOp34
 70
     1
102
RTVSPost2010Prop35
280
     0
102
RTVSPost2010PropOp35
 70
     1
102
RTVSPost2010Prop36
280
     0
102
RTVSPost2010PropOp36
 70
     1
102
RTVSPost2010Prop37
 90
       50
102
RTVSPost2010PropOp37
 70
     1
102
RTVSPost2010Prop38
140
0.0
102
RTVSPost2010PropOp38
 70
     1
102
RTVSPost2010Prop39
140
1.0
102
RTVSPost2010PropOp39
 70
     1
102
RTVSPost2010Prop40
 90
        0
102
RTVSPost2010PropOp40
 70
     1
102
RTVSPost2010Prop41ColorIndex
 90
       18
102
RTVSPost2010Prop41ColorRGB
 90
        0
102
RTVSPost2010PropOp41
 70
     1
102
RTVSPost2010Prop42
 90
       50
102
RTVSPost2010PropOp42
 70
     1
102
RTVSPost2010Prop43
 90
        3
102
RTVSPost2010PropOp43
 70
     1
102
RTVSPost2010Prop44ColorIndex
 90
        5
102
RTVSPost2010Prop44ColorRGB
 90
      255
102
RTVSPost2010PropOp44
 70
     1
102
RTVSPost2010Prop45
280
     0
102
RTVSPost2010PropOp45
 70
     1
102
RTVSPost2010Prop46
 90
       50
102
RTVSPost2010PropOp46
 70
     1
102
RTVSPost2010Prop47
 90
       50
102
RTVSPost2010PropOp47
 70
     1
102
RTVSPost2010Prop48
 90
       50
102
RTVSPost2010PropOp48
 70
     1
102
RTVSPost2010Prop49
280
     0
102
RTVSPost2010PropOp49
 70
     1
102
RTVSPost2010Prop50
 90
       50
102
RTVSPost2010PropOp50
 70
     1
102
RTVSPost2010Prop51ColorIndex
 90
      256
102
RTVSPost2010Prop51ColorRGB
 90
-16777216
102
RTVSPost2010PropOp51
 70
     0
102
RTVSPost2010Prop52
140
1.0
102
RTVSPost2010PropOp52
 70
     0
102
RTVSPost2010Prop53
 90
        2
102
RTVSPost2010PropOp53
 70
     1
102
RTVSPost2010Prop54
  1
strokes_ogs.tif
102
RTVSPost2010PropOp54
 70
     1
102
RTVSPost2010Prop55
280
     0
102
RTVSPost2010PropOp55
 70
     1
102
RTVSPost2010Prop56
140
1.0
102
RTVSPost2010PropOp56
 70
     1
102
RTVSPost2010Prop57
140
1.0
102
RTVSPost2010PropOp57
 70
     1
  0
XRECORD
  5
17A09
102
{ACAD_REACTORS
330
17A08
102
}
330
17A08
100
AcDbXrecord
280
     1
102
RTVSPost2010Prop28
280
     0
102
RTVSPost2010PropOp28
 70
     1
102
RTVSPost2010Prop29
280
     1
102
RTVSPost2010PropOp29
 70
     1
102
RTVSPost2010Prop30
280
     1
102
RTVSPost2010PropOp30
 70
     1
102
RTVSPost2010Prop31
280
     0
102
RTVSPost2010PropOp31
 70
     1
102
RTVSPost2010Prop32
280
     0
102
RTVSPost2010PropOp32
 70
     1
102
RTVSPost2010Prop33
280
     0
102
RTVSPost2010PropOp33
 70
     1
102
RTVSPost2010Prop34
280
     0
102
RTVSPost2010PropOp34
 70
     1
102
RTVSPost2010Prop35
280
     0
102
RTVSPost2010PropOp35
 70
     1
102
RTVSPost2010Prop36
280
     0
102
RTVSPost2010PropOp36
 70
     1
102
RTVSPost2010Prop37
 90
       50
102
RTVSPost2010PropOp37
 70
     1
102
RTVSPost2010Prop38
140
0.0
102
RTVSPost2010PropOp38
 70
     1
102
RTVSPost2010Prop39
140
1.0
102
RTVSPost2010PropOp39
 70
     1
102
RTVSPost2010Prop40
 90
        0
102
RTVSPost2010PropOp40
 70
     1
102
RTVSPost2010Prop41ColorIndex
 90
       18
102
RTVSPost2010Prop41ColorRGB
 90
        0
102
RTVSPost2010PropOp41
 70
     1
102
RTVSPost2010Prop42
 90
       50
102
RTVSPost2010PropOp42
 70
     1
102
RTVSPost2010Prop43
 90
        3
102
RTVSPost2010PropOp43
 70
     1
102
RTVSPost2010Prop44ColorIndex
 90
        5
102
RTVSPost2010Prop44ColorRGB
 90
      255
102
RTVSPost2010PropOp44
 70
     1
102
RTVSPost2010Prop45
280
     0
102
RTVSPost2010PropOp45
 70
     1
102
RTVSPost2010Prop46
 90
       50
102
RTVSPost2010PropOp46
 70
     1
102
RTVSPost2010Prop47
 90
       50
102
RTVSPost2010PropOp47
 70
     1
102
RTVSPost2010Prop48
 90
       50
102
RTVSPost2010PropOp48
 70
     1
102
RTVSPost2010Prop49
280
     0
102
RTVSPost2010PropOp49
 70
     1
102
RTVSPost2010Prop50
 90
       50
102
RTVSPost2010PropOp50
 70
     1
102
RTVSPost2010Prop51ColorIndex
 90
      256
102
RTVSPost2010Prop51ColorRGB
 90
-16777216
102
RTVSPost2010PropOp51
 70
     0
102
RTVSPost2010Prop52
140
1.0
102
RTVSPost2010PropOp52
 70
     0
102
RTVSPost2010Prop53
 90
        2
102
RTVSPost2010PropOp53
 70
     1
102
RTVSPost2010Prop54
  1
strokes_ogs.tif
102
RTVSPost2010PropOp54
 70
     1
102
RTVSPost2010Prop55
280
     0
102
RTVSPost2010PropOp55
 70
     1
102
RTVSPost2010Prop56
140
1.0
102
RTVSPost2010PropOp56
 70
     1
102
RTVSPost2010Prop57
140
1.0
102
RTVSPost2010PropOp57
 70
     1
  0
XRECORD
  5
17A17
102
{ACAD_REACTORS
330
17A16
102
}
330
17A16
100
AcDbXrecord
280
     1
102
RTVSPost2010Prop28
280
     0
102
RTVSPost2010PropOp28
 70
     1
102
RTVSPost2010Prop29
280
     1
102
RTVSPost2010PropOp29
 70
     1
102
RTVSPost2010Prop30
280
     1
102
RTVSPost2010PropOp30
 70
     1
102
RTVSPost2010Prop31
280
     0
102
RTVSPost2010PropOp31
 70
     1
102
RTVSPost2010Prop32
280
     0
102
RTVSPost2010PropOp32
 70
     1
102
RTVSPost2010Prop33
280
     0
102
RTVSPost2010PropOp33
 70
     1
102
RTVSPost2010Prop34
280
     0
102
RTVSPost2010PropOp34
 70
     1
102
RTVSPost2010Prop35
280
     0
102
RTVSPost2010PropOp35
 70
     1
102
RTVSPost2010Prop36
280
     0
102
RTVSPost2010PropOp36
 70
     1
102
RTVSPost2010Prop37
 90
       50
102
RTVSPost2010PropOp37
 70
     1
102
RTVSPost2010Prop38
140
0.0
102
RTVSPost2010PropOp38
 70
     1
102
RTVSPost2010Prop39
140
1.0
102
RTVSPost2010PropOp39
 70
     1
102
RTVSPost2010Prop40
 90
        0
102
RTVSPost2010PropOp40
 70
     1
102
RTVSPost2010Prop41ColorIndex
 90
       18
102
RTVSPost2010Prop41ColorRGB
 90
        0
102
RTVSPost2010PropOp41
 70
     1
102
RTVSPost2010Prop42
 90
       50
102
RTVSPost2010PropOp42
 70
     1
102
RTVSPost2010Prop43
 90
        3
102
RTVSPost2010PropOp43
 70
     1
102
RTVSPost2010Prop44ColorIndex
 90
        5
102
RTVSPost2010Prop44ColorRGB
 90
      255
102
RTVSPost2010PropOp44
 70
     1
102
RTVSPost2010Prop45
280
     0
102
RTVSPost2010PropOp45
 70
     1
102
RTVSPost2010Prop46
 90
       50
102
RTVSPost2010PropOp46
 70
     1
102
RTVSPost2010Prop47
 90
       50
102
RTVSPost2010PropOp47
 70
     1
102
RTVSPost2010Prop48
 90
       50
102
RTVSPost2010PropOp48
 70
     1
102
RTVSPost2010Prop49
280
     0
102
RTVSPost2010PropOp49
 70
     1
102
RTVSPost2010Prop50
 90
       50
102
RTVSPost2010PropOp50
 70
     1
102
RTVSPost2010Prop51ColorIndex
 90
      256
102
RTVSPost2010Prop51ColorRGB
 90
-16777216
102
RTVSPost2010PropOp51
 70
     0
102
RTVSPost2010Prop52
140
1.0
102
RTVSPost2010PropOp52
 70
     0
102
RTVSPost2010Prop53
 90
        2
102
RTVSPost2010PropOp53
 70
     1
102
RTVSPost2010Prop54
  1
strokes_ogs.tif
102
RTVSPost2010PropOp54
 70
     1
102
RTVSPost2010Prop55
280
     0
102
RTVSPost2010PropOp55
 70
     1
102
RTVSPost2010Prop56
140
1.0
102
RTVSPost2010PropOp56
 70
     1
102
RTVSPost2010Prop57
140
1.0
102
RTVSPost2010PropOp57
 70
     1
  0
XRECORD
  5
17A1F
102
{ACAD_REACTORS
330
17A1E
102
}
330
17A1E
100
AcDbXrecord
280
     1
102
RTVSPost2010Prop28
280
     0
102
RTVSPost2010PropOp28
 70
     1
102
RTVSPost2010Prop29
280
     1
102
RTVSPost2010PropOp29
 70
     1
102
RTVSPost2010Prop30
280
     1
102
RTVSPost2010PropOp30
 70
     1
102
RTVSPost2010Prop31
280
     0
102
RTVSPost2010PropOp31
 70
     1
102
RTVSPost2010Prop32
280
     0
102
RTVSPost2010PropOp32
 70
     1
102
RTVSPost2010Prop33
280
     0
102
RTVSPost2010PropOp33
 70
     1
102
RTVSPost2010Prop34
280
     0
102
RTVSPost2010PropOp34
 70
     1
102
RTVSPost2010Prop35
280
     0
102
RTVSPost2010PropOp35
 70
     1
102
RTVSPost2010Prop36
280
     0
102
RTVSPost2010PropOp36
 70
     1
102
RTVSPost2010Prop37
 90
       50
102
RTVSPost2010PropOp37
 70
     1
102
RTVSPost2010Prop38
140
0.0
102
RTVSPost2010PropOp38
 70
     1
102
RTVSPost2010Prop39
140
1.0
102
RTVSPost2010PropOp39
 70
     1
102
RTVSPost2010Prop40
 90
        0
102
RTVSPost2010PropOp40
 70
     1
102
RTVSPost2010Prop41ColorIndex
 90
       18
102
RTVSPost2010Prop41ColorRGB
 90
        0
102
RTVSPost2010PropOp41
 70
     1
102
RTVSPost2010Prop42
 90
       50
102
RTVSPost2010PropOp42
 70
     1
102
RTVSPost2010Prop43
 90
        3
102
RTVSPost2010PropOp43
 70
     1
102
RTVSPost2010Prop44ColorIndex
 90
        5
102
RTVSPost2010Prop44ColorRGB
 90
      255
102
RTVSPost2010PropOp44
 70
     1
102
RTVSPost2010Prop45
280
     0
102
RTVSPost2010PropOp45
 70
     1
102
RTVSPost2010Prop46
 90
       50
102
RTVSPost2010PropOp46
 70
     1
102
RTVSPost2010Prop47
 90
       50
102
RTVSPost2010PropOp47
 70
     1
102
RTVSPost2010Prop48
 90
       50
102
RTVSPost2010PropOp48
 70
     1
102
RTVSPost2010Prop49
280
     0
102
RTVSPost2010PropOp49
 70
     1
102
RTVSPost2010Prop50
 90
       50
102
RTVSPost2010PropOp50
 70
     1
102
RTVSPost2010Prop51ColorIndex
 90
      256
102
RTVSPost2010Prop51ColorRGB
 90
-16777216
102
RTVSPost2010PropOp51
 70
     0
102
RTVSPost2010Prop52
140
1.0
102
RTVSPost2010PropOp52
 70
     0
102
RTVSPost2010Prop53
 90
        2
102
RTVSPost2010PropOp53
 70
     1
102
RTVSPost2010Prop54
  1
strokes_ogs.tif
102
RTVSPost2010PropOp54
 70
     1
102
RTVSPost2010Prop55
280
     0
102
RTVSPost2010PropOp55
 70
     1
102
RTVSPost2010Prop56
140
1.0
102
RTVSPost2010PropOp56
 70
     1
102
RTVSPost2010Prop57
140
1.0
102
RTVSPost2010PropOp57
 70
     1
  0
XRECORD
  5
17A11
102
{ACAD_REACTORS
330
17A10
102
}
330
17A10
100
AcDbXrecord
280
     1
102
RTVSPost2010Prop28
280
     0
102
RTVSPost2010PropOp28
 70
     1
102
RTVSPost2010Prop29
280
     1
102
RTVSPost2010PropOp29
 70
     1
102
RTVSPost2010Prop30
280
     1
102
RTVSPost2010PropOp30
 70
     1
102
RTVSPost2010Prop31
280
     0
102
RTVSPost2010PropOp31
 70
     1
102
RTVSPost2010Prop32
280
     0
102
RTVSPost2010PropOp32
 70
     1
102
RTVSPost2010Prop33
280
     0
102
RTVSPost2010PropOp33
 70
     1
102
RTVSPost2010Prop34
280
     0
102
RTVSPost2010PropOp34
 70
     1
102
RTVSPost2010Prop35
280
     0
102
RTVSPost2010PropOp35
 70
     1
102
RTVSPost2010Prop36
280
     0
102
RTVSPost2010PropOp36
 70
     1
102
RTVSPost2010Prop37
 90
       50
102
RTVSPost2010PropOp37
 70
     1
102
RTVSPost2010Prop38
140
0.0
102
RTVSPost2010PropOp38
 70
     1
102
RTVSPost2010Prop39
140
1.0
102
RTVSPost2010PropOp39
 70
     1
102
RTVSPost2010Prop40
 90
        0
102
RTVSPost2010PropOp40
 70
     1
102
RTVSPost2010Prop41ColorIndex
 90
       18
102
RTVSPost2010Prop41ColorRGB
 90
        0
102
RTVSPost2010PropOp41
 70
     1
102
RTVSPost2010Prop42
 90
       50
102
RTVSPost2010PropOp42
 70
     1
102
RTVSPost2010Prop43
 90
        3
102
RTVSPost2010PropOp43
 70
     1
102
RTVSPost2010Prop44ColorIndex
 90
        5
102
RTVSPost2010Prop44ColorRGB
 90
      255
102
RTVSPost2010PropOp44
 70
     1
102
RTVSPost2010Prop45
280
     0
102
RTVSPost2010PropOp45
 70
     1
102
RTVSPost2010Prop46
 90
       50
102
RTVSPost2010PropOp46
 70
     1
102
RTVSPost2010Prop47
 90
       50
102
RTVSPost2010PropOp47
 70
     1
102
RTVSPost2010Prop48
 90
       50
102
RTVSPost2010PropOp48
 70
     1
102
RTVSPost2010Prop49
280
     0
102
RTVSPost2010PropOp49
 70
     1
102
RTVSPost2010Prop50
 90
       50
102
RTVSPost2010PropOp50
 70
     1
102
RTVSPost2010Prop51ColorIndex
 90
      256
102
RTVSPost2010Prop51ColorRGB
 90
-16777216
102
RTVSPost2010PropOp51
 70
     0
102
RTVSPost2010Prop52
140
1.0
102
RTVSPost2010PropOp52
 70
     0
102
RTVSPost2010Prop53
 90
        2
102
RTVSPost2010PropOp53
 70
     1
102
RTVSPost2010Prop54
  1
strokes_ogs.tif
102
RTVSPost2010PropOp54
 70
     1
102
RTVSPost2010Prop55
280
     0
102
RTVSPost2010PropOp55
 70
     1
102
RTVSPost2010Prop56
140
1.0
102
RTVSPost2010PropOp56
 70
     1
102
RTVSPost2010Prop57
140
1.0
102
RTVSPost2010PropOp57
 70
     1
  0
XRECORD
  5
17A15
102
{ACAD_REACTORS
330
17A14
102
}
330
17A14
100
AcDbXrecord
280
     1
102
RTVSPost2010Prop28
280
     0
102
RTVSPost2010PropOp28
 70
     1
102
RTVSPost2010Prop29
280
     1
102
RTVSPost2010PropOp29
 70
     1
102
RTVSPost2010Prop30
280
     1
102
RTVSPost2010PropOp30
 70
     1
102
RTVSPost2010Prop31
280
     0
102
RTVSPost2010PropOp31
 70
     1
102
RTVSPost2010Prop32
280
     0
102
RTVSPost2010PropOp32
 70
     1
102
RTVSPost2010Prop33
280
     0
102
RTVSPost2010PropOp33
 70
     1
102
RTVSPost2010Prop34
280
     0
102
RTVSPost2010PropOp34
 70
     1
102
RTVSPost2010Prop35
280
     0
102
RTVSPost2010PropOp35
 70
     1
102
RTVSPost2010Prop36
280
     0
102
RTVSPost2010PropOp36
 70
     1
102
RTVSPost2010Prop37
 90
       50
102
RTVSPost2010PropOp37
 70
     1
102
RTVSPost2010Prop38
140
0.0
102
RTVSPost2010PropOp38
 70
     1
102
RTVSPost2010Prop39
140
1.0
102
RTVSPost2010PropOp39
 70
     1
102
RTVSPost2010Prop40
 90
        0
102
RTVSPost2010PropOp40
 70
     1
102
RTVSPost2010Prop41ColorIndex
 90
       18
102
RTVSPost2010Prop41ColorRGB
 90
        0
102
RTVSPost2010PropOp41
 70
     1
102
RTVSPost2010Prop42
 90
       50
102
RTVSPost2010PropOp42
 70
     1
102
RTVSPost2010Prop43
 90
        3
102
RTVSPost2010PropOp43
 70
     1
102
RTVSPost2010Prop44ColorIndex
 90
        5
102
RTVSPost2010Prop44ColorRGB
 90
      255
102
RTVSPost2010PropOp44
 70
     1
102
RTVSPost2010Prop45
280
     0
102
RTVSPost2010PropOp45
 70
     1
102
RTVSPost2010Prop46
 90
       50
102
RTVSPost2010PropOp46
 70
     1
102
RTVSPost2010Prop47
 90
       50
102
RTVSPost2010PropOp47
 70
     1
102
RTVSPost2010Prop48
 90
       50
102
RTVSPost2010PropOp48
 70
     1
102
RTVSPost2010Prop49
280
     0
102
RTVSPost2010PropOp49
 70
     1
102
RTVSPost2010Prop50
 90
       50
102
RTVSPost2010PropOp50
 70
     1
102
RTVSPost2010Prop51ColorIndex
 90
      256
102
RTVSPost2010Prop51ColorRGB
 90
-16777216
102
RTVSPost2010PropOp51
 70
     0
102
RTVSPost2010Prop52
140
1.0
102
RTVSPost2010PropOp52
 70
     0
102
RTVSPost2010Prop53
 90
        2
102
RTVSPost2010PropOp53
 70
     1
102
RTVSPost2010Prop54
  1
strokes_ogs.tif
102
RTVSPost2010PropOp54
 70
     1
102
RTVSPost2010Prop55
280
     0
102
RTVSPost2010PropOp55
 70
     1
102
RTVSPost2010Prop56
140
1.0
102
RTVSPost2010PropOp56
 70
     1
102
RTVSPost2010Prop57
140
1.0
102
RTVSPost2010PropOp57
 70
     1
  0
XRECORD
  5
17A2F
102
{ACAD_REACTORS
330
17A2E
102
}
330
17A2E
100
AcDbXrecord
280
     1
102
RTVSPost2010Prop28
280
     0
102
RTVSPost2010PropOp28
 70
     0
102
RTVSPost2010Prop29
280
     1
102
RTVSPost2010PropOp29
 70
     0
102
RTVSPost2010Prop30
280
     1
102
RTVSPost2010PropOp30
 70
     0
102
RTVSPost2010Prop31
280
     0
102
RTVSPost2010PropOp31
 70
     0
102
RTVSPost2010Prop32
280
     0
102
RTVSPost2010PropOp32
 70
     0
102
RTVSPost2010Prop33
280
     0
102
RTVSPost2010PropOp33
 70
     0
102
RTVSPost2010Prop34
280
     0
102
RTVSPost2010PropOp34
 70
     0
102
RTVSPost2010Prop35
280
     0
102
RTVSPost2010PropOp35
 70
     0
102
RTVSPost2010Prop36
280
     0
102
RTVSPost2010PropOp36
 70
     0
102
RTVSPost2010Prop37
 90
       50
102
RTVSPost2010PropOp37
 70
     0
102
RTVSPost2010Prop38
140
0.0
102
RTVSPost2010PropOp38
 70
     0
102
RTVSPost2010Prop39
140
1.0
102
RTVSPost2010PropOp39
 70
     0
102
RTVSPost2010Prop40
 90
        0
102
RTVSPost2010PropOp40
 70
     0
102
RTVSPost2010Prop41ColorIndex
 90
       18
102
RTVSPost2010Prop41ColorRGB
 90
        0
102
RTVSPost2010PropOp41
 70
     0
102
RTVSPost2010Prop42
 90
       50
102
RTVSPost2010PropOp42
 70
     0
102
RTVSPost2010Prop43
 90
        3
102
RTVSPost2010PropOp43
 70
     0
102
RTVSPost2010Prop44ColorIndex
 90
        5
102
RTVSPost2010Prop44ColorRGB
 90
      255
102
RTVSPost2010PropOp44
 70
     0
102
RTVSPost2010Prop45
280
     0
102
RTVSPost2010PropOp45
 70
     0
102
RTVSPost2010Prop46
 90
       50
102
RTVSPost2010PropOp46
 70
     0
102
RTVSPost2010Prop47
 90
       50
102
RTVSPost2010PropOp47
 70
     0
102
RTVSPost2010Prop48
 90
       50
102
RTVSPost2010PropOp48
 70
     0
102
RTVSPost2010Prop49
280
     0
102
RTVSPost2010PropOp49
 70
     0
102
RTVSPost2010Prop50
 90
       50
102
RTVSPost2010PropOp50
 70
     0
102
RTVSPost2010Prop51ColorIndex
 90
      256
102
RTVSPost2010Prop51ColorRGB
 90
-16777216
102
RTVSPost2010PropOp51
 70
     0
102
RTVSPost2010Prop52
140
1.0
102
RTVSPost2010PropOp52
 70
     0
102
RTVSPost2010Prop53
 90
        2
102
RTVSPost2010PropOp53
 70
     0
102
RTVSPost2010Prop54
  1
strokes_ogs.tif
102
RTVSPost2010PropOp54
 70
     0
102
RTVSPost2010Prop55
280
     0
102
RTVSPost2010PropOp55
 70
     0
102
RTVSPost2010Prop56
140
1.0
102
RTVSPost2010PropOp56
 70
     0
102
RTVSPost2010Prop57
140
1.0
102
RTVSPost2010PropOp57
 70
     0
  0
XRECORD
  5
17A1D
102
{ACAD_REACTORS
330
17A1C
102
}
330
17A1C
100
AcDbXrecord
280
     1
102
RTVSPost2010Prop28
280
     0
102
RTVSPost2010PropOp28
 70
     1
102
RTVSPost2010Prop29
280
     1
102
RTVSPost2010PropOp29
 70
     1
102
RTVSPost2010Prop30
280
     1
102
RTVSPost2010PropOp30
 70
     1
102
RTVSPost2010Prop31
280
     0
102
RTVSPost2010PropOp31
 70
     1
102
RTVSPost2010Prop32
280
     0
102
RTVSPost2010PropOp32
 70
     1
102
RTVSPost2010Prop33
280
     0
102
RTVSPost2010PropOp33
 70
     1
102
RTVSPost2010Prop34
280
     0
102
RTVSPost2010PropOp34
 70
     1
102
RTVSPost2010Prop35
280
     0
102
RTVSPost2010PropOp35
 70
     1
102
RTVSPost2010Prop36
280
     0
102
RTVSPost2010PropOp36
 70
     1
102
RTVSPost2010Prop37
 90
       50
102
RTVSPost2010PropOp37
 70
     1
102
RTVSPost2010Prop38
140
0.0
102
RTVSPost2010PropOp38
 70
     1
102
RTVSPost2010Prop39
140
1.0
102
RTVSPost2010PropOp39
 70
     1
102
RTVSPost2010Prop40
 90
        0
102
RTVSPost2010PropOp40
 70
     1
102
RTVSPost2010Prop41ColorIndex
 90
       18
102
RTVSPost2010Prop41ColorRGB
 90
        0
102
RTVSPost2010PropOp41
 70
     1
102
RTVSPost2010Prop42
 90
       50
102
RTVSPost2010PropOp42
 70
     1
102
RTVSPost2010Prop43
 90
        3
102
RTVSPost2010PropOp43
 70
     1
102
RTVSPost2010Prop44ColorIndex
 90
        5
102
RTVSPost2010Prop44ColorRGB
 90
      255
102
RTVSPost2010PropOp44
 70
     1
102
RTVSPost2010Prop45
280
     0
102
RTVSPost2010PropOp45
 70
     1
102
RTVSPost2010Prop46
 90
       50
102
RTVSPost2010PropOp46
 70
     1
102
RTVSPost2010Prop47
 90
       50
102
RTVSPost2010PropOp47
 70
     1
102
RTVSPost2010Prop48
 90
       50
102
RTVSPost2010PropOp48
 70
     1
102
RTVSPost2010Prop49
280
     0
102
RTVSPost2010PropOp49
 70
     1
102
RTVSPost2010Prop50
 90
       50
102
RTVSPost2010PropOp50
 70
     1
102
RTVSPost2010Prop51ColorIndex
 90
      256
102
RTVSPost2010Prop51ColorRGB
 90
-16777216
102
RTVSPost2010PropOp51
 70
     0
102
RTVSPost2010Prop52
140
1.0
102
RTVSPost2010PropOp52
 70
     0
102
RTVSPost2010Prop53
 90
        2
102
RTVSPost2010PropOp53
 70
     1
102
RTVSPost2010Prop54
  1
strokes_ogs.tif
102
RTVSPost2010PropOp54
 70
     1
102
RTVSPost2010Prop55
280
     0
102
RTVSPost2010PropOp55
 70
     1
102
RTVSPost2010Prop56
140
1.0
102
RTVSPost2010PropOp56
 70
     1
102
RTVSPost2010Prop57
140
1.0
102
RTVSPost2010PropOp57
 70
     1
  0
XRECORD
  5
17A01
102
{ACAD_REACTORS
330
17A00
102
}
330
17A00
100
AcDbXrecord
280
     1
102
RTVSPost2010Prop28
280
     0
102
RTVSPost2010PropOp28
 70
     1
102
RTVSPost2010Prop29
280
     1
102
RTVSPost2010PropOp29
 70
     1
102
RTVSPost2010Prop30
280
     1
102
RTVSPost2010PropOp30
 70
     1
102
RTVSPost2010Prop31
280
     0
102
RTVSPost2010PropOp31
 70
     1
102
RTVSPost2010Prop32
280
     0
102
RTVSPost2010PropOp32
 70
     1
102
RTVSPost2010Prop33
280
     0
102
RTVSPost2010PropOp33
 70
     1
102
RTVSPost2010Prop34
280
     0
102
RTVSPost2010PropOp34
 70
     1
102
RTVSPost2010Prop35
280
     0
102
RTVSPost2010PropOp35
 70
     1
102
RTVSPost2010Prop36
280
     0
102
RTVSPost2010PropOp36
 70
     1
102
RTVSPost2010Prop37
 90
       50
102
RTVSPost2010PropOp37
 70
     1
102
RTVSPost2010Prop38
140
0.0
102
RTVSPost2010PropOp38
 70
     1
102
RTVSPost2010Prop39
140
1.0
102
RTVSPost2010PropOp39
 70
     1
102
RTVSPost2010Prop40
 90
        0
102
RTVSPost2010PropOp40
 70
     1
102
RTVSPost2010Prop41ColorIndex
 90
       18
102
RTVSPost2010Prop41ColorRGB
 90
        0
102
RTVSPost2010PropOp41
 70
     1
102
RTVSPost2010Prop42
 90
       50
102
RTVSPost2010PropOp42
 70
     1
102
RTVSPost2010Prop43
 90
        3
102
RTVSPost2010PropOp43
 70
     1
102
RTVSPost2010Prop44ColorIndex
 90
        5
102
RTVSPost2010Prop44ColorRGB
 90
      255
102
RTVSPost2010PropOp44
 70
     1
102
RTVSPost2010Prop45
280
     0
102
RTVSPost2010PropOp45
 70
     1
102
RTVSPost2010Prop46
 90
       50
102
RTVSPost2010PropOp46
 70
     1
102
RTVSPost2010Prop47
 90
       50
102
RTVSPost2010PropOp47
 70
     1
102
RTVSPost2010Prop48
 90
       50
102
RTVSPost2010PropOp48
 70
     1
102
RTVSPost2010Prop49
280
     0
102
RTVSPost2010PropOp49
 70
     1
102
RTVSPost2010Prop50
 90
       50
102
RTVSPost2010PropOp50
 70
     1
102
RTVSPost2010Prop51ColorIndex
 90
      256
102
RTVSPost2010Prop51ColorRGB
 90
-16777216
102
RTVSPost2010PropOp51
 70
     0
102
RTVSPost2010Prop52
140
1.0
102
RTVSPost2010PropOp52
 70
     0
102
RTVSPost2010Prop53
 90
        2
102
RTVSPost2010PropOp53
 70
     1
102
RTVSPost2010Prop54
  1
strokes_ogs.tif
102
RTVSPost2010PropOp54
 70
     1
102
RTVSPost2010Prop55
280
     0
102
RTVSPost2010PropOp55
 70
     1
102
RTVSPost2010Prop56
140
1.0
102
RTVSPost2010PropOp56
 70
     1
102
RTVSPost2010Prop57
140
1.0
102
RTVSPost2010PropOp57
 70
     1
  0
XRECORD
  5
17A03
102
{ACAD_REACTORS
330
17A02
102
}
330
17A02
100
AcDbXrecord
280
     1
102
RTVSPost2010Prop28
280
     0
102
RTVSPost2010PropOp28
 70
     1
102
RTVSPost2010Prop29
280
     1
102
RTVSPost2010PropOp29
 70
     1
102
RTVSPost2010Prop30
280
     1
102
RTVSPost2010PropOp30
 70
     1
102
RTVSPost2010Prop31
280
     0
102
RTVSPost2010PropOp31
 70
     1
102
RTVSPost2010Prop32
280
     0
102
RTVSPost2010PropOp32
 70
     1
102
RTVSPost2010Prop33
280
     0
102
RTVSPost2010PropOp33
 70
     1
102
RTVSPost2010Prop34
280
     0
102
RTVSPost2010PropOp34
 70
     1
102
RTVSPost2010Prop35
280
     0
102
RTVSPost2010PropOp35
 70
     1
102
RTVSPost2010Prop36
280
     0
102
RTVSPost2010PropOp36
 70
     1
102
RTVSPost2010Prop37
 90
       50
102
RTVSPost2010PropOp37
 70
     1
102
RTVSPost2010Prop38
140
0.0
102
RTVSPost2010PropOp38
 70
     1
102
RTVSPost2010Prop39
140
1.0
102
RTVSPost2010PropOp39
 70
     1
102
RTVSPost2010Prop40
 90
        0
102
RTVSPost2010PropOp40
 70
     1
102
RTVSPost2010Prop41ColorIndex
 90
       18
102
RTVSPost2010Prop41ColorRGB
 90
        0
102
RTVSPost2010PropOp41
 70
     1
102
RTVSPost2010Prop42
 90
       50
102
RTVSPost2010PropOp42
 70
     1
102
RTVSPost2010Prop43
 90
        3
102
RTVSPost2010PropOp43
 70
     1
102
RTVSPost2010Prop44ColorIndex
 90
        5
102
RTVSPost2010Prop44ColorRGB
 90
      255
102
RTVSPost2010PropOp44
 70
     1
102
RTVSPost2010Prop45
280
     0
102
RTVSPost2010PropOp45
 70
     1
102
RTVSPost2010Prop46
 90
       50
102
RTVSPost2010PropOp46
 70
     1
102
RTVSPost2010Prop47
 90
       50
102
RTVSPost2010PropOp47
 70
     1
102
RTVSPost2010Prop48
 90
       50
102
RTVSPost2010PropOp48
 70
     1
102
RTVSPost2010Prop49
280
     0
102
RTVSPost2010PropOp49
 70
     1
102
RTVSPost2010Prop50
 90
       50
102
RTVSPost2010PropOp50
 70
     1
102
RTVSPost2010Prop51ColorIndex
 90
      256
102
RTVSPost2010Prop51ColorRGB
 90
-16777216
102
RTVSPost2010PropOp51
 70
     0
102
RTVSPost2010Prop52
140
1.0
102
RTVSPost2010PropOp52
 70
     0
102
RTVSPost2010Prop53
 90
        2
102
RTVSPost2010PropOp53
 70
     1
102
RTVSPost2010Prop54
  1
strokes_ogs.tif
102
RTVSPost2010PropOp54
 70
     1
102
RTVSPost2010Prop55
280
     0
102
RTVSPost2010PropOp55
 70
     1
102
RTVSPost2010Prop56
140
1.0
102
RTVSPost2010PropOp56
 70
     1
102
RTVSPost2010Prop57
140
1.0
102
RTVSPost2010PropOp57
 70
     1
  0
XRECORD
  5
17A05
102
{ACAD_REACTORS
330
17A04
102
}
330
17A04
100
AcDbXrecord
280
     1
102
RTVSPost2010Prop28
280
     0
102
RTVSPost2010PropOp28
 70
     1
102
RTVSPost2010Prop29
280
     1
102
RTVSPost2010PropOp29
 70
     1
102
RTVSPost2010Prop30
280
     1
102
RTVSPost2010PropOp30
 70
     1
102
RTVSPost2010Prop31
280
     0
102
RTVSPost2010PropOp31
 70
     1
102
RTVSPost2010Prop32
280
     0
102
RTVSPost2010PropOp32
 70
     1
102
RTVSPost2010Prop33
280
     0
102
RTVSPost2010PropOp33
 70
     1
102
RTVSPost2010Prop34
280
     0
102
RTVSPost2010PropOp34
 70
     1
102
RTVSPost2010Prop35
280
     0
102
RTVSPost2010PropOp35
 70
     1
102
RTVSPost2010Prop36
280
     0
102
RTVSPost2010PropOp36
 70
     1
102
RTVSPost2010Prop37
 90
       50
102
RTVSPost2010PropOp37
 70
     1
102
RTVSPost2010Prop38
140
0.0
102
RTVSPost2010PropOp38
 70
     1
102
RTVSPost2010Prop39
140
1.0
102
RTVSPost2010PropOp39
 70
     1
102
RTVSPost2010Prop40
 90
        0
102
RTVSPost2010PropOp40
 70
     1
102
RTVSPost2010Prop41ColorIndex
 90
       18
102
RTVSPost2010Prop41ColorRGB
 90
        0
102
RTVSPost2010PropOp41
 70
     1
102
RTVSPost2010Prop42
 90
       50
102
RTVSPost2010PropOp42
 70
     1
102
RTVSPost2010Prop43
 90
        3
102
RTVSPost2010PropOp43
 70
     1
102
RTVSPost2010Prop44ColorIndex
 90
        5
102
RTVSPost2010Prop44ColorRGB
 90
      255
102
RTVSPost2010PropOp44
 70
     1
102
RTVSPost2010Prop45
280
     0
102
RTVSPost2010PropOp45
 70
     1
102
RTVSPost2010Prop46
 90
       50
102
RTVSPost2010PropOp46
 70
     1
102
RTVSPost2010Prop47
 90
       50
102
RTVSPost2010PropOp47
 70
     1
102
RTVSPost2010Prop48
 90
       50
102
RTVSPost2010PropOp48
 70
     1
102
RTVSPost2010Prop49
280
     0
102
RTVSPost2010PropOp49
 70
     1
102
RTVSPost2010Prop50
 90
       50
102
RTVSPost2010PropOp50
 70
     1
102
RTVSPost2010Prop51ColorIndex
 90
      256
102
RTVSPost2010Prop51ColorRGB
 90
-16777216
102
RTVSPost2010PropOp51
 70
     0
102
RTVSPost2010Prop52
140
1.0
102
RTVSPost2010PropOp52
 70
     0
102
RTVSPost2010Prop53
 90
        2
102
RTVSPost2010PropOp53
 70
     1
102
RTVSPost2010Prop54
  1
strokes_ogs.tif
102
RTVSPost2010PropOp54
 70
     1
102
RTVSPost2010Prop55
280
     0
102
RTVSPost2010PropOp55
 70
     1
102
RTVSPost2010Prop56
140
1.0
102
RTVSPost2010PropOp56
 70
     1
102
RTVSPost2010Prop57
140
1.0
102
RTVSPost2010PropOp57
 70
     1
  0
XRECORD
  5
17A07
102
{ACAD_REACTORS
330
17A06
102
}
330
17A06
100
AcDbXrecord
280
     1
102
RTVSPost2010Prop28
280
     0
102
RTVSPost2010PropOp28
 70
     1
102
RTVSPost2010Prop29
280
     1
102
RTVSPost2010PropOp29
 70
     1
102
RTVSPost2010Prop30
280
     1
102
RTVSPost2010PropOp30
 70
     1
102
RTVSPost2010Prop31
280
     0
102
RTVSPost2010PropOp31
 70
     1
102
RTVSPost2010Prop32
280
     0
102
RTVSPost2010PropOp32
 70
     1
102
RTVSPost2010Prop33
280
     0
102
RTVSPost2010PropOp33
 70
     1
102
RTVSPost2010Prop34
280
     0
102
RTVSPost2010PropOp34
 70
     1
102
RTVSPost2010Prop35
280
     0
102
RTVSPost2010PropOp35
 70
     1
102
RTVSPost2010Prop36
280
     0
102
RTVSPost2010PropOp36
 70
     1
102
RTVSPost2010Prop37
 90
       50
102
RTVSPost2010PropOp37
 70
     1
102
RTVSPost2010Prop38
140
0.0
102
RTVSPost2010PropOp38
 70
     1
102
RTVSPost2010Prop39
140
1.0
102
RTVSPost2010PropOp39
 70
     1
102
RTVSPost2010Prop40
 90
        0
102
RTVSPost2010PropOp40
 70
     1
102
RTVSPost2010Prop41ColorIndex
 90
       18
102
RTVSPost2010Prop41ColorRGB
 90
        0
102
RTVSPost2010PropOp41
 70
     1
102
RTVSPost2010Prop42
 90
       50
102
RTVSPost2010PropOp42
 70
     1
102
RTVSPost2010Prop43
 90
        3
102
RTVSPost2010PropOp43
 70
     1
102
RTVSPost2010Prop44ColorIndex
 90
        5
102
RTVSPost2010Prop44ColorRGB
 90
      255
102
RTVSPost2010PropOp44
 70
     1
102
RTVSPost2010Prop45
280
     0
102
RTVSPost2010PropOp45
 70
     1
102
RTVSPost2010Prop46
 90
       50
102
RTVSPost2010PropOp46
 70
     1
102
RTVSPost2010Prop47
 90
       50
102
RTVSPost2010PropOp47
 70
     1
102
RTVSPost2010Prop48
 90
       50
102
RTVSPost2010PropOp48
 70
     1
102
RTVSPost2010Prop49
280
     0
102
RTVSPost2010PropOp49
 70
     1
102
RTVSPost2010Prop50
 90
       50
102
RTVSPost2010PropOp50
 70
     1
102
RTVSPost2010Prop51ColorIndex
 90
      256
102
RTVSPost2010Prop51ColorRGB
 90
-16777216
102
RTVSPost2010PropOp51
 70
     0
102
RTVSPost2010Prop52
140
1.0
102
RTVSPost2010PropOp52
 70
     0
102
RTVSPost2010Prop53
 90
        2
102
RTVSPost2010PropOp53
 70
     1
102
RTVSPost2010Prop54
  1
strokes_ogs.tif
102
RTVSPost2010PropOp54
 70
     1
102
RTVSPost2010Prop55
280
     0
102
RTVSPost2010PropOp55
 70
     1
102
RTVSPost2010Prop56
140
1.0
102
RTVSPost2010PropOp56
 70
     1
102
RTVSPost2010Prop57
140
1.0
102
RTVSPost2010PropOp57
 70
     1
  0
XRECORD
  5
17A0F
102
{ACAD_REACTORS
330
17A0E
102
}
330
17A0E
100
AcDbXrecord
280
     1
102
RTVSPost2010Prop28
280
     0
102
RTVSPost2010PropOp28
 70
     1
102
RTVSPost2010Prop29
280
     1
102
RTVSPost2010PropOp29
 70
     1
102
RTVSPost2010Prop30
280
     1
102
RTVSPost2010PropOp30
 70
     1
102
RTVSPost2010Prop31
280
     0
102
RTVSPost2010PropOp31
 70
     1
102
RTVSPost2010Prop32
280
     0
102
RTVSPost2010PropOp32
 70
     1
102
RTVSPost2010Prop33
280
     0
102
RTVSPost2010PropOp33
 70
     1
102
RTVSPost2010Prop34
280
     0
102
RTVSPost2010PropOp34
 70
     1
102
RTVSPost2010Prop35
280
     0
102
RTVSPost2010PropOp35
 70
     1
102
RTVSPost2010Prop36
280
     0
102
RTVSPost2010PropOp36
 70
     1
102
RTVSPost2010Prop37
 90
       50
102
RTVSPost2010PropOp37
 70
     1
102
RTVSPost2010Prop38
140
0.0
102
RTVSPost2010PropOp38
 70
     1
102
RTVSPost2010Prop39
140
1.0
102
RTVSPost2010PropOp39
 70
     1
102
RTVSPost2010Prop40
 90
        0
102
RTVSPost2010PropOp40
 70
     1
102
RTVSPost2010Prop41ColorIndex
 90
       18
102
RTVSPost2010Prop41ColorRGB
 90
        0
102
RTVSPost2010PropOp41
 70
     1
102
RTVSPost2010Prop42
 90
       50
102
RTVSPost2010PropOp42
 70
     1
102
RTVSPost2010Prop43
 90
        3
102
RTVSPost2010PropOp43
 70
     1
102
RTVSPost2010Prop44ColorIndex
 90
        5
102
RTVSPost2010Prop44ColorRGB
 90
      255
102
RTVSPost2010PropOp44
 70
     1
102
RTVSPost2010Prop45
280
     0
102
RTVSPost2010PropOp45
 70
     1
102
RTVSPost2010Prop46
 90
       50
102
RTVSPost2010PropOp46
 70
     1
102
RTVSPost2010Prop47
 90
       50
102
RTVSPost2010PropOp47
 70
     1
102
RTVSPost2010Prop48
 90
       50
102
RTVSPost2010PropOp48
 70
     1
102
RTVSPost2010Prop49
280
     0
102
RTVSPost2010PropOp49
 70
     1
102
RTVSPost2010Prop50
 90
       50
102
RTVSPost2010PropOp50
 70
     1
102
RTVSPost2010Prop51ColorIndex
 90
      256
102
RTVSPost2010Prop51ColorRGB
 90
-16777216
102
RTVSPost2010PropOp51
 70
     0
102
RTVSPost2010Prop52
140
1.0
102
RTVSPost2010PropOp52
 70
     0
102
RTVSPost2010Prop53
 90
        2
102
RTVSPost2010PropOp53
 70
     1
102
RTVSPost2010Prop54
  1
strokes_ogs.tif
102
RTVSPost2010PropOp54
 70
     1
102
RTVSPost2010Prop55
280
     0
102
RTVSPost2010PropOp55
 70
     1
102
RTVSPost2010Prop56
140
1.0
102
RTVSPost2010PropOp56
 70
     1
102
RTVSPost2010Prop57
140
1.0
102
RTVSPost2010PropOp57
 70
     1
  0
XRECORD
  5
17A2B
102
{ACAD_REACTORS
330
17A2A
102
}
330
17A2A
100
AcDbXrecord
280
     1
102
RTVSPost2010Prop28
280
     0
102
RTVSPost2010PropOp28
 70
     0
102
RTVSPost2010Prop29
280
     1
102
RTVSPost2010PropOp29
 70
     0
102
RTVSPost2010Prop30
280
     1
102
RTVSPost2010PropOp30
 70
     0
102
RTVSPost2010Prop31
280
     0
102
RTVSPost2010PropOp31
 70
     0
102
RTVSPost2010Prop32
280
     0
102
RTVSPost2010PropOp32
 70
     0
102
RTVSPost2010Prop33
280
     0
102
RTVSPost2010PropOp33
 70
     0
102
RTVSPost2010Prop34
280
     0
102
RTVSPost2010PropOp34
 70
     0
102
RTVSPost2010Prop35
280
     0
102
RTVSPost2010PropOp35
 70
     0
102
RTVSPost2010Prop36
280
     0
102
RTVSPost2010PropOp36
 70
     0
102
RTVSPost2010Prop37
 90
       50
102
RTVSPost2010PropOp37
 70
     0
102
RTVSPost2010Prop38
140
0.0
102
RTVSPost2010PropOp38
 70
     0
102
RTVSPost2010Prop39
140
1.0
102
RTVSPost2010PropOp39
 70
     0
102
RTVSPost2010Prop40
 90
        0
102
RTVSPost2010PropOp40
 70
     0
102
RTVSPost2010Prop41ColorIndex
 90
       18
102
RTVSPost2010Prop41ColorRGB
 90
        0
102
RTVSPost2010PropOp41
 70
     0
102
RTVSPost2010Prop42
 90
       50
102
RTVSPost2010PropOp42
 70
     0
102
RTVSPost2010Prop43
 90
        3
102
RTVSPost2010PropOp43
 70
     0
102
RTVSPost2010Prop44ColorIndex
 90
        5
102
RTVSPost2010Prop44ColorRGB
 90
      255
102
RTVSPost2010PropOp44
 70
     0
102
RTVSPost2010Prop45
280
     0
102
RTVSPost2010PropOp45
 70
     0
102
RTVSPost2010Prop46
 90
       50
102
RTVSPost2010PropOp46
 70
     0
102
RTVSPost2010Prop47
 90
       50
102
RTVSPost2010PropOp47
 70
     0
102
RTVSPost2010Prop48
 90
       50
102
RTVSPost2010PropOp48
 70
     0
102
RTVSPost2010Prop49
280
     0
102
RTVSPost2010PropOp49
 70
     0
102
RTVSPost2010Prop50
 90
       50
102
RTVSPost2010PropOp50
 70
     0
102
RTVSPost2010Prop51ColorIndex
 90
      256
102
RTVSPost2010Prop51ColorRGB
 90
-16777216
102
RTVSPost2010PropOp51
 70
     0
102
RTVSPost2010Prop52
140
1.0
102
RTVSPost2010PropOp52
 70
     0
102
RTVSPost2010Prop53
 90
        2
102
RTVSPost2010PropOp53
 70
     0
102
RTVSPost2010Prop54
  1
strokes_ogs.tif
102
RTVSPost2010PropOp54
 70
     0
102
RTVSPost2010Prop55
280
     0
102
RTVSPost2010PropOp55
 70
     0
102
RTVSPost2010Prop56
140
1.0
102
RTVSPost2010PropOp56
 70
     0
102
RTVSPost2010Prop57
140
1.0
102
RTVSPost2010PropOp57
 70
     0
  0
XRECORD
  5
17A1B
102
{ACAD_REACTORS
330
17A1A
102
}
330
17A1A
100
AcDbXrecord
280
     1
102
RTVSPost2010Prop28
280
     0
102
RTVSPost2010PropOp28
 70
     1
102
RTVSPost2010Prop29
280
     1
102
RTVSPost2010PropOp29
 70
     1
102
RTVSPost2010Prop30
280
     1
102
RTVSPost2010PropOp30
 70
     1
102
RTVSPost2010Prop31
280
     0
102
RTVSPost2010PropOp31
 70
     1
102
RTVSPost2010Prop32
280
     0
102
RTVSPost2010PropOp32
 70
     1
102
RTVSPost2010Prop33
280
     0
102
RTVSPost2010PropOp33
 70
     1
102
RTVSPost2010Prop34
280
     0
102
RTVSPost2010PropOp34
 70
     1
102
RTVSPost2010Prop35
280
     0
102
RTVSPost2010PropOp35
 70
     1
102
RTVSPost2010Prop36
280
     0
102
RTVSPost2010PropOp36
 70
     1
102
RTVSPost2010Prop37
 90
       50
102
RTVSPost2010PropOp37
 70
     1
102
RTVSPost2010Prop38
140
0.0
102
RTVSPost2010PropOp38
 70
     1
102
RTVSPost2010Prop39
140
1.0
102
RTVSPost2010PropOp39
 70
     1
102
RTVSPost2010Prop40
 90
        0
102
RTVSPost2010PropOp40
 70
     1
102
RTVSPost2010Prop41ColorIndex
 90
       18
102
RTVSPost2010Prop41ColorRGB
 90
        0
102
RTVSPost2010PropOp41
 70
     1
102
RTVSPost2010Prop42
 90
       50
102
RTVSPost2010PropOp42
 70
     1
102
RTVSPost2010Prop43
 90
        3
102
RTVSPost2010PropOp43
 70
     1
102
RTVSPost2010Prop44ColorIndex
 90
        5
102
RTVSPost2010Prop44ColorRGB
 90
      255
102
RTVSPost2010PropOp44
 70
     1
102
RTVSPost2010Prop45
280
     0
102
RTVSPost2010PropOp45
 70
     1
102
RTVSPost2010Prop46
 90
       50
102
RTVSPost2010PropOp46
 70
     1
102
RTVSPost2010Prop47
 90
       50
102
RTVSPost2010PropOp47
 70
     1
102
RTVSPost2010Prop48
 90
       50
102
RTVSPost2010PropOp48
 70
     1
102
RTVSPost2010Prop49
280
     0
102
RTVSPost2010PropOp49
 70
     1
102
RTVSPost2010Prop50
 90
       50
102
RTVSPost2010PropOp50
 70
     1
102
RTVSPost2010Prop51ColorIndex
 90
      256
102
RTVSPost2010Prop51ColorRGB
 90
-16777216
102
RTVSPost2010PropOp51
 70
     0
102
RTVSPost2010Prop52
140
1.0
102
RTVSPost2010PropOp52
 70
     0
102
RTVSPost2010Prop53
 90
        2
102
RTVSPost2010PropOp53
 70
     1
102
RTVSPost2010Prop54
  1
strokes_ogs.tif
102
RTVSPost2010PropOp54
 70
     1
102
RTVSPost2010Prop55
280
     0
102
RTVSPost2010PropOp55
 70
     1
102
RTVSPost2010Prop56
140
1.0
102
RTVSPost2010PropOp56
 70
     1
102
RTVSPost2010Prop57
140
1.0
102
RTVSPost2010PropOp57
 70
     1
  0
XRECORD
  5
17A2D
102
{ACAD_REACTORS
330
17A2C
102
}
330
17A2C
100
AcDbXrecord
280
     1
102
RTVSPost2010Prop28
280
     0
102
RTVSPost2010PropOp28
 70
     0
102
RTVSPost2010Prop29
280
     1
102
RTVSPost2010PropOp29
 70
     0
102
RTVSPost2010Prop30
280
     1
102
RTVSPost2010PropOp30
 70
     0
102
RTVSPost2010Prop31
280
     0
102
RTVSPost2010PropOp31
 70
     0
102
RTVSPost2010Prop32
280
     0
102
RTVSPost2010PropOp32
 70
     0
102
RTVSPost2010Prop33
280
     0
102
RTVSPost2010PropOp33
 70
     0
102
RTVSPost2010Prop34
280
     0
102
RTVSPost2010PropOp34
 70
     0
102
RTVSPost2010Prop35
280
     0
102
RTVSPost2010PropOp35
 70
     0
102
RTVSPost2010Prop36
280
     0
102
RTVSPost2010PropOp36
 70
     0
102
RTVSPost2010Prop37
 90
       50
102
RTVSPost2010PropOp37
 70
     0
102
RTVSPost2010Prop38
140
0.0
102
RTVSPost2010PropOp38
 70
     0
102
RTVSPost2010Prop39
140
1.0
102
RTVSPost2010PropOp39
 70
     0
102
RTVSPost2010Prop40
 90
        0
102
RTVSPost2010PropOp40
 70
     0
102
RTVSPost2010Prop41ColorIndex
 90
       18
102
RTVSPost2010Prop41ColorRGB
 90
        0
102
RTVSPost2010PropOp41
 70
     0
102
RTVSPost2010Prop42
 90
       50
102
RTVSPost2010PropOp42
 70
     0
102
RTVSPost2010Prop43
 90
        3
102
RTVSPost2010PropOp43
 70
     0
102
RTVSPost2010Prop44ColorIndex
 90
        5
102
RTVSPost2010Prop44ColorRGB
 90
      255
102
RTVSPost2010PropOp44
 70
     0
102
RTVSPost2010Prop45
280
     0
102
RTVSPost2010PropOp45
 70
     0
102
RTVSPost2010Prop46
 90
       50
102
RTVSPost2010PropOp46
 70
     0
102
RTVSPost2010Prop47
 90
       50
102
RTVSPost2010PropOp47
 70
     0
102
RTVSPost2010Prop48
 90
       50
102
RTVSPost2010PropOp48
 70
     0
102
RTVSPost2010Prop49
280
     0
102
RTVSPost2010PropOp49
 70
     0
102
RTVSPost2010Prop50
 90
       50
102
RTVSPost2010PropOp50
 70
     0
102
RTVSPost2010Prop51ColorIndex
 90
      256
102
RTVSPost2010Prop51ColorRGB
 90
-16777216
102
RTVSPost2010PropOp51
 70
     0
102
RTVSPost2010Prop52
140
1.0
102
RTVSPost2010PropOp52
 70
     0
102
RTVSPost2010Prop53
 90
        2
102
RTVSPost2010PropOp53
 70
     0
102
RTVSPost2010Prop54
  1
strokes_ogs.tif
102
RTVSPost2010PropOp54
 70
     0
102
RTVSPost2010Prop55
280
     0
102
RTVSPost2010PropOp55
 70
     0
102
RTVSPost2010Prop56
140
1.0
102
RTVSPost2010PropOp56
 70
     0
102
RTVSPost2010Prop57
140
1.0
102
RTVSPost2010PropOp57
 70
     0
  0
XRECORD
  5
17A13
102
{ACAD_REACTORS
330
17A12
102
}
330
17A12
100
AcDbXrecord
280
     1
102
RTVSPost2010Prop28
280
     0
102
RTVSPost2010PropOp28
 70
     1
102
RTVSPost2010Prop29
280
     1
102
RTVSPost2010PropOp29
 70
     1
102
RTVSPost2010Prop30
280
     1
102
RTVSPost2010PropOp30
 70
     1
102
RTVSPost2010Prop31
280
     0
102
RTVSPost2010PropOp31
 70
     1
102
RTVSPost2010Prop32
280
     0
102
RTVSPost2010PropOp32
 70
     1
102
RTVSPost2010Prop33
280
     0
102
RTVSPost2010PropOp33
 70
     1
102
RTVSPost2010Prop34
280
     0
102
RTVSPost2010PropOp34
 70
     1
102
RTVSPost2010Prop35
280
     0
102
RTVSPost2010PropOp35
 70
     1
102
RTVSPost2010Prop36
280
     0
102
RTVSPost2010PropOp36
 70
     1
102
RTVSPost2010Prop37
 90
       50
102
RTVSPost2010PropOp37
 70
     1
102
RTVSPost2010Prop38
140
0.0
102
RTVSPost2010PropOp38
 70
     1
102
RTVSPost2010Prop39
140
1.0
102
RTVSPost2010PropOp39
 70
     1
102
RTVSPost2010Prop40
 90
        0
102
RTVSPost2010PropOp40
 70
     1
102
RTVSPost2010Prop41ColorIndex
 90
       18
102
RTVSPost2010Prop41ColorRGB
 90
        0
102
RTVSPost2010PropOp41
 70
     1
102
RTVSPost2010Prop42
 90
       50
102
RTVSPost2010PropOp42
 70
     1
102
RTVSPost2010Prop43
 90
        3
102
RTVSPost2010PropOp43
 70
     1
102
RTVSPost2010Prop44ColorIndex
 90
        5
102
RTVSPost2010Prop44ColorRGB
 90
      255
102
RTVSPost2010PropOp44
 70
     1
102
RTVSPost2010Prop45
280
     0
102
RTVSPost2010PropOp45
 70
     1
102
RTVSPost2010Prop46
 90
       50
102
RTVSPost2010PropOp46
 70
     1
102
RTVSPost2010Prop47
 90
       50
102
RTVSPost2010PropOp47
 70
     1
102
RTVSPost2010Prop48
 90
       50
102
RTVSPost2010PropOp48
 70
     1
102
RTVSPost2010Prop49
280
     0
102
RTVSPost2010PropOp49
 70
     1
102
RTVSPost2010Prop50
 90
       50
102
RTVSPost2010PropOp50
 70
     1
102
RTVSPost2010Prop51ColorIndex
 90
      256
102
RTVSPost2010Prop51ColorRGB
 90
-16777216
102
RTVSPost2010PropOp51
 70
     0
102
RTVSPost2010Prop52
140
1.0
102
RTVSPost2010PropOp52
 70
     0
102
RTVSPost2010Prop53
 90
        2
102
RTVSPost2010PropOp53
 70
     1
102
RTVSPost2010Prop54
  1
strokes_ogs.tif
102
RTVSPost2010PropOp54
 70
     1
102
RTVSPost2010Prop55
280
     0
102
RTVSPost2010PropOp55
 70
     1
102
RTVSPost2010Prop56
140
1.0
102
RTVSPost2010PropOp56
 70
     1
102
RTVSPost2010Prop57
140
1.0
102
RTVSPost2010PropOp57
 70
     1
  0
XRECORD
  5
17A29
102
{ACAD_REACTORS
330
17A28
102
}
330
17A28
100
AcDbXrecord
280
     1
102
RTVSPost2010Prop28
280
     0
102
RTVSPost2010PropOp28
 70
     1
102
RTVSPost2010Prop29
280
     1
102
RTVSPost2010PropOp29
 70
     1
102
RTVSPost2010Prop30
280
     1
102
RTVSPost2010PropOp30
 70
     1
102
RTVSPost2010Prop31
280
     0
102
RTVSPost2010PropOp31
 70
     1
102
RTVSPost2010Prop32
280
     0
102
RTVSPost2010PropOp32
 70
     1
102
RTVSPost2010Prop33
280
     0
102
RTVSPost2010PropOp33
 70
     1
102
RTVSPost2010Prop34
280
     0
102
RTVSPost2010PropOp34
 70
     1
102
RTVSPost2010Prop35
280
     0
102
RTVSPost2010PropOp35
 70
     1
102
RTVSPost2010Prop36
280
     0
102
RTVSPost2010PropOp36
 70
     1
102
RTVSPost2010Prop37
 90
       50
102
RTVSPost2010PropOp37
 70
     1
102
RTVSPost2010Prop38
140
0.0
102
RTVSPost2010PropOp38
 70
     1
102
RTVSPost2010Prop39
140
1.0
102
RTVSPost2010PropOp39
 70
     1
102
RTVSPost2010Prop40
 90
        0
102
RTVSPost2010PropOp40
 70
     1
102
RTVSPost2010Prop41ColorIndex
 90
       18
102
RTVSPost2010Prop41ColorRGB
 90
        0
102
RTVSPost2010PropOp41
 70
     1
102
RTVSPost2010Prop42
 90
       50
102
RTVSPost2010PropOp42
 70
     1
102
RTVSPost2010Prop43
 90
        3
102
RTVSPost2010PropOp43
 70
     1
102
RTVSPost2010Prop44ColorIndex
 90
        5
102
RTVSPost2010Prop44ColorRGB
 90
      255
102
RTVSPost2010PropOp44
 70
     1
102
RTVSPost2010Prop45
280
     0
102
RTVSPost2010PropOp45
 70
     1
102
RTVSPost2010Prop46
 90
       50
102
RTVSPost2010PropOp46
 70
     1
102
RTVSPost2010Prop47
 90
       50
102
RTVSPost2010PropOp47
 70
     1
102
RTVSPost2010Prop48
 90
       50
102
RTVSPost2010PropOp48
 70
     1
102
RTVSPost2010Prop49
280
     0
102
RTVSPost2010PropOp49
 70
     1
102
RTVSPost2010Prop50
 90
       50
102
RTVSPost2010PropOp50
 70
     1
102
RTVSPost2010Prop51ColorIndex
 90
      256
102
RTVSPost2010Prop51ColorRGB
 90
-16777216
102
RTVSPost2010PropOp51
 70
     0
102
RTVSPost2010Prop52
140
1.0
102
RTVSPost2010PropOp52
 70
     0
102
RTVSPost2010Prop53
 90
        2
102
RTVSPost2010PropOp53
 70
     1
102
RTVSPost2010Prop54
  1
strokes_ogs.tif
102
RTVSPost2010PropOp54
 70
     1
102
RTVSPost2010Prop55
280
     0
102
RTVSPost2010PropOp55
 70
     1
102
RTVSPost2010Prop56
140
1.0
102
RTVSPost2010PropOp56
 70
     1
102
RTVSPost2010Prop57
140
1.0
102
RTVSPost2010PropOp57
 70
     1
  0
XRECORD
  5
17A27
102
{ACAD_REACTORS
330
17A26
102
}
330
17A26
100
AcDbXrecord
280
     1
102
RTVSPost2010Prop28
280
     0
102
RTVSPost2010PropOp28
 70
     1
102
RTVSPost2010Prop29
280
     1
102
RTVSPost2010PropOp29
 70
     1
102
RTVSPost2010Prop30
280
     1
102
RTVSPost2010PropOp30
 70
     1
102
RTVSPost2010Prop31
280
     0
102
RTVSPost2010PropOp31
 70
     1
102
RTVSPost2010Prop32
280
     0
102
RTVSPost2010PropOp32
 70
     1
102
RTVSPost2010Prop33
280
     0
102
RTVSPost2010PropOp33
 70
     1
102
RTVSPost2010Prop34
280
     0
102
RTVSPost2010PropOp34
 70
     1
102
RTVSPost2010Prop35
280
     0
102
RTVSPost2010PropOp35
 70
     1
102
RTVSPost2010Prop36
280
     0
102
RTVSPost2010PropOp36
 70
     1
102
RTVSPost2010Prop37
 90
       50
102
RTVSPost2010PropOp37
 70
     1
102
RTVSPost2010Prop38
140
0.0
102
RTVSPost2010PropOp38
 70
     1
102
RTVSPost2010Prop39
140
1.0
102
RTVSPost2010PropOp39
 70
     1
102
RTVSPost2010Prop40
 90
        0
102
RTVSPost2010PropOp40
 70
     1
102
RTVSPost2010Prop41ColorIndex
 90
       18
102
RTVSPost2010Prop41ColorRGB
 90
        0
102
RTVSPost2010PropOp41
 70
     1
102
RTVSPost2010Prop42
 90
       50
102
RTVSPost2010PropOp42
 70
     1
102
RTVSPost2010Prop43
 90
        3
102
RTVSPost2010PropOp43
 70
     1
102
RTVSPost2010Prop44ColorIndex
 90
        5
102
RTVSPost2010Prop44ColorRGB
 90
      255
102
RTVSPost2010PropOp44
 70
     1
102
RTVSPost2010Prop45
280
     0
102
RTVSPost2010PropOp45
 70
     1
102
RTVSPost2010Prop46
 90
       50
102
RTVSPost2010PropOp46
 70
     1
102
RTVSPost2010Prop47
 90
       50
102
RTVSPost2010PropOp47
 70
     1
102
RTVSPost2010Prop48
 90
       50
102
RTVSPost2010PropOp48
 70
     1
102
RTVSPost2010Prop49
280
     0
102
RTVSPost2010PropOp49
 70
     1
102
RTVSPost2010Prop50
 90
       50
102
RTVSPost2010PropOp50
 70
     1
102
RTVSPost2010Prop51ColorIndex
 90
      256
102
RTVSPost2010Prop51ColorRGB
 90
-16777216
102
RTVSPost2010PropOp51
 70
     0
102
RTVSPost2010Prop52
140
1.0
102
RTVSPost2010PropOp52
 70
     0
102
RTVSPost2010Prop53
 90
        2
102
RTVSPost2010PropOp53
 70
     1
102
RTVSPost2010Prop54
  1
strokes_ogs.tif
102
RTVSPost2010PropOp54
 70
     1
102
RTVSPost2010Prop55
280
     0
102
RTVSPost2010PropOp55
 70
     1
102
RTVSPost2010Prop56
140
1.0
102
RTVSPost2010PropOp56
 70
     1
102
RTVSPost2010Prop57
140
1.0
102
RTVSPost2010PropOp57
 70
     1
  0
XRECORD
  5
17A21
102
{ACAD_REACTORS
330
17A20
102
}
330
17A20
100
AcDbXrecord
280
     1
102
RTVSPost2010Prop28
280
     0
102
RTVSPost2010PropOp28
 70
     1
102
RTVSPost2010Prop29
280
     1
102
RTVSPost2010PropOp29
 70
     1
102
RTVSPost2010Prop30
280
     1
102
RTVSPost2010PropOp30
 70
     1
102
RTVSPost2010Prop31
280
     0
102
RTVSPost2010PropOp31
 70
     1
102
RTVSPost2010Prop32
280
     0
102
RTVSPost2010PropOp32
 70
     1
102
RTVSPost2010Prop33
280
     0
102
RTVSPost2010PropOp33
 70
     1
102
RTVSPost2010Prop34
280
     0
102
RTVSPost2010PropOp34
 70
     1
102
RTVSPost2010Prop35
280
     0
102
RTVSPost2010PropOp35
 70
     1
102
RTVSPost2010Prop36
280
     0
102
RTVSPost2010PropOp36
 70
     1
102
RTVSPost2010Prop37
 90
       50
102
RTVSPost2010PropOp37
 70
     1
102
RTVSPost2010Prop38
140
0.0
102
RTVSPost2010PropOp38
 70
     1
102
RTVSPost2010Prop39
140
1.0
102
RTVSPost2010PropOp39
 70
     1
102
RTVSPost2010Prop40
 90
        0
102
RTVSPost2010PropOp40
 70
     1
102
RTVSPost2010Prop41ColorIndex
 90
       18
102
RTVSPost2010Prop41ColorRGB
 90
        0
102
RTVSPost2010PropOp41
 70
     1
102
RTVSPost2010Prop42
 90
       50
102
RTVSPost2010PropOp42
 70
     1
102
RTVSPost2010Prop43
 90
        3
102
RTVSPost2010PropOp43
 70
     1
102
RTVSPost2010Prop44ColorIndex
 90
        5
102
RTVSPost2010Prop44ColorRGB
 90
      255
102
RTVSPost2010PropOp44
 70
     1
102
RTVSPost2010Prop45
280
     0
102
RTVSPost2010PropOp45
 70
     1
102
RTVSPost2010Prop46
 90
       50
102
RTVSPost2010PropOp46
 70
     1
102
RTVSPost2010Prop47
 90
       50
102
RTVSPost2010PropOp47
 70
     1
102
RTVSPost2010Prop48
 90
       50
102
RTVSPost2010PropOp48
 70
     1
102
RTVSPost2010Prop49
280
     0
102
RTVSPost2010PropOp49
 70
     1
102
RTVSPost2010Prop50
 90
       50
102
RTVSPost2010PropOp50
 70
     1
102
RTVSPost2010Prop51ColorIndex
 90
      256
102
RTVSPost2010Prop51ColorRGB
 90
-16777216
102
RTVSPost2010PropOp51
 70
     0
102
RTVSPost2010Prop52
140
1.0
102
RTVSPost2010PropOp52
 70
     0
102
RTVSPost2010Prop53
 90
        2
102
RTVSPost2010PropOp53
 70
     1
102
RTVSPost2010Prop54
  1
strokes_ogs.tif
102
RTVSPost2010PropOp54
 70
     1
102
RTVSPost2010Prop55
280
     0
102
RTVSPost2010PropOp55
 70
     1
102
RTVSPost2010Prop56
140
1.0
102
RTVSPost2010PropOp56
 70
     1
102
RTVSPost2010Prop57
140
1.0
102
RTVSPost2010PropOp57
 70
     1
  0
XRECORD
  5
17A23
102
{ACAD_REACTORS
330
17A22
102
}
330
17A22
100
AcDbXrecord
280
     1
102
RTVSPost2010Prop28
280
     0
102
RTVSPost2010PropOp28
 70
     1
102
RTVSPost2010Prop29
280
     1
102
RTVSPost2010PropOp29
 70
     1
102
RTVSPost2010Prop30
280
     1
102
RTVSPost2010PropOp30
 70
     1
102
RTVSPost2010Prop31
280
     0
102
RTVSPost2010PropOp31
 70
     1
102
RTVSPost2010Prop32
280
     0
102
RTVSPost2010PropOp32
 70
     1
102
RTVSPost2010Prop33
280
     0
102
RTVSPost2010PropOp33
 70
     1
102
RTVSPost2010Prop34
280
     0
102
RTVSPost2010PropOp34
 70
     1
102
RTVSPost2010Prop35
280
     0
102
RTVSPost2010PropOp35
 70
     1
102
RTVSPost2010Prop36
280
     0
102
RTVSPost2010PropOp36
 70
     1
102
RTVSPost2010Prop37
 90
       50
102
RTVSPost2010PropOp37
 70
     1
102
RTVSPost2010Prop38
140
0.0
102
RTVSPost2010PropOp38
 70
     1
102
RTVSPost2010Prop39
140
1.0
102
RTVSPost2010PropOp39
 70
     1
102
RTVSPost2010Prop40
 90
        0
102
RTVSPost2010PropOp40
 70
     1
102
RTVSPost2010Prop41ColorIndex
 90
       18
102
RTVSPost2010Prop41ColorRGB
 90
        0
102
RTVSPost2010PropOp41
 70
     1
102
RTVSPost2010Prop42
 90
       50
102
RTVSPost2010PropOp42
 70
     1
102
RTVSPost2010Prop43
 90
        3
102
RTVSPost2010PropOp43
 70
     1
102
RTVSPost2010Prop44ColorIndex
 90
        5
102
RTVSPost2010Prop44ColorRGB
 90
      255
102
RTVSPost2010PropOp44
 70
     1
102
RTVSPost2010Prop45
280
     0
102
RTVSPost2010PropOp45
 70
     1
102
RTVSPost2010Prop46
 90
       50
102
RTVSPost2010PropOp46
 70
     1
102
RTVSPost2010Prop47
 90
       50
102
RTVSPost2010PropOp47
 70
     1
102
RTVSPost2010Prop48
 90
       50
102
RTVSPost2010PropOp48
 70
     1
102
RTVSPost2010Prop49
280
     0
102
RTVSPost2010PropOp49
 70
     1
102
RTVSPost2010Prop50
 90
       50
102
RTVSPost2010PropOp50
 70
     1
102
RTVSPost2010Prop51ColorIndex
 90
      256
102
RTVSPost2010Prop51ColorRGB
 90
-16777216
102
RTVSPost2010PropOp51
 70
     0
102
RTVSPost2010Prop52
140
1.0
102
RTVSPost2010PropOp52
 70
     0
102
RTVSPost2010Prop53
 90
        2
102
RTVSPost2010PropOp53
 70
     1
102
RTVSPost2010Prop54
  1
strokes_ogs.tif
102
RTVSPost2010PropOp54
 70
     1
102
RTVSPost2010Prop55
280
     0
102
RTVSPost2010PropOp55
 70
     1
102
RTVSPost2010Prop56
140
1.0
102
RTVSPost2010PropOp56
 70
     1
102
RTVSPost2010Prop57
140
1.0
102
RTVSPost2010PropOp57
 70
     1
  0
XRECORD
  5
17A19
102
{ACAD_REACTORS
330
17A18
102
}
330
17A18
100
AcDbXrecord
280
     1
102
RTVSPost2010Prop28
280
     0
102
RTVSPost2010PropOp28
 70
     1
102
RTVSPost2010Prop29
280
     1
102
RTVSPost2010PropOp29
 70
     1
102
RTVSPost2010Prop30
280
     1
102
RTVSPost2010PropOp30
 70
     1
102
RTVSPost2010Prop31
280
     0
102
RTVSPost2010PropOp31
 70
     1
102
RTVSPost2010Prop32
280
     0
102
RTVSPost2010PropOp32
 70
     1
102
RTVSPost2010Prop33
280
     0
102
RTVSPost2010PropOp33
 70
     1
102
RTVSPost2010Prop34
280
     0
102
RTVSPost2010PropOp34
 70
     1
102
RTVSPost2010Prop35
280
     0
102
RTVSPost2010PropOp35
 70
     1
102
RTVSPost2010Prop36
280
     0
102
RTVSPost2010PropOp36
 70
     1
102
RTVSPost2010Prop37
 90
       50
102
RTVSPost2010PropOp37
 70
     1
102
RTVSPost2010Prop38
140
0.0
102
RTVSPost2010PropOp38
 70
     1
102
RTVSPost2010Prop39
140
1.0
102
RTVSPost2010PropOp39
 70
     1
102
RTVSPost2010Prop40
 90
        0
102
RTVSPost2010PropOp40
 70
     1
102
RTVSPost2010Prop41ColorIndex
 90
       18
102
RTVSPost2010Prop41ColorRGB
 90
        0
102
RTVSPost2010PropOp41
 70
     1
102
RTVSPost2010Prop42
 90
       50
102
RTVSPost2010PropOp42
 70
     1
102
RTVSPost2010Prop43
 90
        3
102
RTVSPost2010PropOp43
 70
     1
102
RTVSPost2010Prop44ColorIndex
 90
        5
102
RTVSPost2010Prop44ColorRGB
 90
      255
102
RTVSPost2010PropOp44
 70
     1
102
RTVSPost2010Prop45
280
     0
102
RTVSPost2010PropOp45
 70
     1
102
RTVSPost2010Prop46
 90
       50
102
RTVSPost2010PropOp46
 70
     1
102
RTVSPost2010Prop47
 90
       50
102
RTVSPost2010PropOp47
 70
     1
102
RTVSPost2010Prop48
 90
       50
102
RTVSPost2010PropOp48
 70
     1
102
RTVSPost2010Prop49
280
     0
102
RTVSPost2010PropOp49
 70
     1
102
RTVSPost2010Prop50
 90
       50
102
RTVSPost2010PropOp50
 70
     1
102
RTVSPost2010Prop51ColorIndex
 90
      256
102
RTVSPost2010Prop51ColorRGB
 90
-16777216
102
RTVSPost2010PropOp51
 70
     0
102
RTVSPost2010Prop52
140
1.0
102
RTVSPost2010PropOp52
 70
     0
102
RTVSPost2010Prop53
 90
        2
102
RTVSPost2010PropOp53
 70
     1
102
RTVSPost2010Prop54
  1
strokes_ogs.tif
102
RTVSPost2010PropOp54
 70
     1
102
RTVSPost2010Prop55
280
     0
102
RTVSPost2010PropOp55
 70
     1
102
RTVSPost2010Prop56
140
1.0
102
RTVSPost2010PropOp56
 70
     1
102
RTVSPost2010Prop57
140
1.0
102
RTVSPost2010PropOp57
 70
     1
  0
XRECORD
  5
17A0D
102
{ACAD_REACTORS
330
17A0C
102
}
330
17A0C
100
AcDbXrecord
280
     1
102
RTVSPost2010Prop28
280
     0
102
RTVSPost2010PropOp28
 70
     1
102
RTVSPost2010Prop29
280
     1
102
RTVSPost2010PropOp29
 70
     1
102
RTVSPost2010Prop30
280
     1
102
RTVSPost2010PropOp30
 70
     1
102
RTVSPost2010Prop31
280
     0
102
RTVSPost2010PropOp31
 70
     1
102
RTVSPost2010Prop32
280
     0
102
RTVSPost2010PropOp32
 70
     1
102
RTVSPost2010Prop33
280
     0
102
RTVSPost2010PropOp33
 70
     1
102
RTVSPost2010Prop34
280
     0
102
RTVSPost2010PropOp34
 70
     1
102
RTVSPost2010Prop35
280
     0
102
RTVSPost2010PropOp35
 70
     1
102
RTVSPost2010Prop36
280
     0
102
RTVSPost2010PropOp36
 70
     1
102
RTVSPost2010Prop37
 90
       50
102
RTVSPost2010PropOp37
 70
     1
102
RTVSPost2010Prop38
140
0.0
102
RTVSPost2010PropOp38
 70
     1
102
RTVSPost2010Prop39
140
1.0
102
RTVSPost2010PropOp39
 70
     1
102
RTVSPost2010Prop40
 90
        0
102
RTVSPost2010PropOp40
 70
     1
102
RTVSPost2010Prop41ColorIndex
 90
       18
102
RTVSPost2010Prop41ColorRGB
 90
        0
102
RTVSPost2010PropOp41
 70
     1
102
RTVSPost2010Prop42
 90
       50
102
RTVSPost2010PropOp42
 70
     1
102
RTVSPost2010Prop43
 90
        3
102
RTVSPost2010PropOp43
 70
     1
102
RTVSPost2010Prop44ColorIndex
 90
        5
102
RTVSPost2010Prop44ColorRGB
 90
      255
102
RTVSPost2010PropOp44
 70
     1
102
RTVSPost2010Prop45
280
     0
102
RTVSPost2010PropOp45
 70
     1
102
RTVSPost2010Prop46
 90
       50
102
RTVSPost2010PropOp46
 70
     1
102
RTVSPost2010Prop47
 90
       50
102
RTVSPost2010PropOp47
 70
     1
102
RTVSPost2010Prop48
 90
       50
102
RTVSPost2010PropOp48
 70
     1
102
RTVSPost2010Prop49
280
     0
102
RTVSPost2010PropOp49
 70
     1
102
RTVSPost2010Prop50
 90
       50
102
RTVSPost2010PropOp50
 70
     1
102
RTVSPost2010Prop51ColorIndex
 90
      256
102
RTVSPost2010Prop51ColorRGB
 90
-16777216
102
RTVSPost2010PropOp51
 70
     0
102
RTVSPost2010Prop52
140
1.0
102
RTVSPost2010PropOp52
 70
     0
102
RTVSPost2010Prop53
 90
        2
102
RTVSPost2010PropOp53
 70
     1
102
RTVSPost2010Prop54
  1
strokes_ogs.tif
102
RTVSPost2010PropOp54
 70
     1
102
RTVSPost2010Prop55
280
     0
102
RTVSPost2010PropOp55
 70
     1
102
RTVSPost2010Prop56
140
1.0
102
RTVSPost2010PropOp56
 70
     1
102
RTVSPost2010Prop57
140
1.0
102
RTVSPost2010PropOp57
 70
     1
  0
XRECORD
  5
17A25
102
{ACAD_REACTORS
330
17A24
102
}
330
17A24
100
AcDbXrecord
280
     1
102
RTVSPost2010Prop28
280
     0
102
RTVSPost2010PropOp28
 70
     1
102
RTVSPost2010Prop29
280
     1
102
RTVSPost2010PropOp29
 70
     1
102
RTVSPost2010Prop30
280
     1
102
RTVSPost2010PropOp30
 70
     1
102
RTVSPost2010Prop31
280
     0
102
RTVSPost2010PropOp31
 70
     1
102
RTVSPost2010Prop32
280
     0
102
RTVSPost2010PropOp32
 70
     1
102
RTVSPost2010Prop33
280
     0
102
RTVSPost2010PropOp33
 70
     1
102
RTVSPost2010Prop34
280
     0
102
RTVSPost2010PropOp34
 70
     1
102
RTVSPost2010Prop35
280
     0
102
RTVSPost2010PropOp35
 70
     1
102
RTVSPost2010Prop36
280
     0
102
RTVSPost2010PropOp36
 70
     1
102
RTVSPost2010Prop37
 90
       50
102
RTVSPost2010PropOp37
 70
     1
102
RTVSPost2010Prop38
140
0.0
102
RTVSPost2010PropOp38
 70
     1
102
RTVSPost2010Prop39
140
1.0
102
RTVSPost2010PropOp39
 70
     1
102
RTVSPost2010Prop40
 90
        0
102
RTVSPost2010PropOp40
 70
     1
102
RTVSPost2010Prop41ColorIndex
 90
       18
102
RTVSPost2010Prop41ColorRGB
 90
        0
102
RTVSPost2010PropOp41
 70
     1
102
RTVSPost2010Prop42
 90
       50
102
RTVSPost2010PropOp42
 70
     1
102
RTVSPost2010Prop43
 90
        3
102
RTVSPost2010PropOp43
 70
     1
102
RTVSPost2010Prop44ColorIndex
 90
        5
102
RTVSPost2010Prop44ColorRGB
 90
      255
102
RTVSPost2010PropOp44
 70
     1
102
RTVSPost2010Prop45
280
     0
102
RTVSPost2010PropOp45
 70
     1
102
RTVSPost2010Prop46
 90
       50
102
RTVSPost2010PropOp46
 70
     1
102
RTVSPost2010Prop47
 90
       50
102
RTVSPost2010PropOp47
 70
     1
102
RTVSPost2010Prop48
 90
       50
102
RTVSPost2010PropOp48
 70
     1
102
RTVSPost2010Prop49
280
     0
102
RTVSPost2010PropOp49
 70
     1
102
RTVSPost2010Prop50
 90
       50
102
RTVSPost2010PropOp50
 70
     1
102
RTVSPost2010Prop51ColorIndex
 90
      256
102
RTVSPost2010Prop51ColorRGB
 90
-16777216
102
RTVSPost2010PropOp51
 70
     0
102
RTVSPost2010Prop52
140
1.0
102
RTVSPost2010PropOp52
 70
     0
102
RTVSPost2010Prop53
 90
        2
102
RTVSPost2010PropOp53
 70
     1
102
RTVSPost2010Prop54
  1
strokes_ogs.tif
102
RTVSPost2010PropOp54
 70
     1
102
RTVSPost2010Prop55
280
     0
102
RTVSPost2010PropOp55
 70
     1
102
RTVSPost2010Prop56
140
1.0
102
RTVSPost2010PropOp56
 70
     1
102
RTVSPost2010Prop57
140
1.0
102
RTVSPost2010PropOp57
 70
     1
  0
ENDSEC
  0
EOF
