  0
SECTION
  2
HEADER
  9
$ACADVER
  1
AC1024
  9
$ACADMAINTVER
 70
   226
  9
$DWGCODEPAGE
  3
ANSI_932
  9
$LASTSAVEDBY
  1
E2358A
  9
$INSBASE
 10
0.0
 20
0.0
 30
0.0
  9
$EXTMIN
 10
4.985676633934076
 20
5.537964407980894
 30
-0.0015258207003583
  9
$EXTMAX
 10
74.06318716071905
 20
138.005463081884
 30
0.0000000349246037
  9
$LIMMIN
 10
0.0
 20
0.0
  9
$LIMMAX
 10
297.0
 20
210.0
  9
$ORTHOMODE
 70
     0
  9
$REGENMODE
 70
     1
  9
$FILLMODE
 70
     1
  9
$QTEXTMODE
 70
     0
  9
$MIRRTEXT
 70
     1
  9
$LTSCALE
 40
1.0
  9
$ATTMODE
 70
     1
  9
$TEXTSIZE
 40
3.149999999999999
  9
$TRACEWID
 40
0.05
  9
$TEXTSTYLE
  7
STANDARD
  9
$CLAYER
  8
0
  9
$CELTYPE
  6
ByLayer
  9
$CECOLOR
 62
   256
  9
$CELTSCALE
 40
1.0
  9
$DISPSILH
 70
     0
  9
$DIMSCALE
 40
1.0
  9
$DIMASZ
 40
0.18
  9
$DIMEXO
 40
0.0625
  9
$DIMDLI
 40
0.38
  9
$DIMRND
 40
0.0
  9
$DIMDLE
 40
0.0
  9
$DIMEXE
 40
0.18
  9
$DIMTP
 40
0.0
  9
$DIMTM
 40
0.0
  9
$DIMTXT
 40
0.18
  9
$DIMCEN
 40
0.09
  9
$DIMTSZ
 40
0.0
  9
$DIMTOL
 70
     0
  9
$DIMLIM
 70
     0
  9
$DIMTIH
 70
     0
  9
$DIMTOH
 70
     1
  9
$DIMSE1
 70
     0
  9
$DIMSE2
 70
     0
  9
$DIMTAD
 70
     0
  9
$DIMZIN
 70
     8
  9
$DIMBLK
  1

  9
$DIMASO
 70
     1
  9
$DIMSHO
 70
     1
  9
$DIMPOST
  1

  9
$DIMAPOST
  1

  9
$DIMALT
 70
     0
  9
$DIMALTD
 70
     2
  9
$DIMALTF
 40
25.4
  9
$DIMLFAC
 40
1.0
  9
$DIMTOFL
 70
     0
  9
$DIMTVP
 40
0.0
  9
$DIMTIX
 70
     0
  9
$DIMSOXD
 70
     0
  9
$DIMSAH
 70
     0
  9
$DIMBLK1
  1

  9
$DIMBLK2
  1

  9
$DIMSTYLE
  2
Standard
  9
$DIMCLRD
 70
     0
  9
$DIMCLRE
 70
     0
  9
$DIMCLRT
 70
     0
  9
$DIMTFAC
 40
1.0
  9
$DIMGAP
 40
0.09
  9
$DIMJUST
 70
     0
  9
$DIMSD1
 70
     0
  9
$DIMSD2
 70
     0
  9
$DIMTOLJ
 70
     1
  9
$DIMTZIN
 70
     0
  9
$DIMALTZ
 70
     0
  9
$DIMALTTZ
 70
     0
  9
$DIMUPT
 70
     0
  9
$DIMDEC
 70
     4
  9
$DIMTDEC
 70
     4
  9
$DIMALTU
 70
     2
  9
$DIMALTTD
 70
     2
  9
$DIMTXSTY
  7
STANDARD
  9
$DIMAUNIT
 70
     0
  9
$DIMADEC
 70
     0
  9
$DIMALTRND
 40
0.0
  9
$DIMAZIN
 70
     2
  9
$DIMDSEP
 70
    46
  9
$DIMATFIT
 70
     3
  9
$DIMFRAC
 70
     0
  9
$DIMLDRBLK
  1

  9
$DIMLUNIT
 70
     2
  9
$DIMLWD
 70
    -2
  9
$DIMLWE
 70
    -2
  9
$DIMTMOVE
 70
     0
  9
$DIMFXL
 40
1.0
  9
$DIMFXLON
 70
     0
  9
$DIMJOGANG
 40
0.7853981633974483
  9
$DIMTFILL
 70
     0
  9
$DIMTFILLCLR
 70
     0
  9
$DIMARCSYM
 70
     0
  9
$DIMLTYPE
  6

  9
$DIMLTEX1
  6

  9
$DIMLTEX2
  6

  9
$DIMTXTDIRECTION
 70
     0
  9
$LUNITS
 70
     2
  9
$LUPREC
 70
     6
  9
$SKETCHINC
 40
0.1
  9
$FILLETRAD
 40
0.0
  9
$AUNITS
 70
     0
  9
$AUPREC
 70
     2
  9
$MENU
  1
ACAD
  9
$ELEVATION
 40
0.0
  9
$PELEVATION
 40
0.0
  9
$THICKNESS
 40
0.0
  9
$LIMCHECK
 70
     0
  9
$CHAMFERA
 40
0.0
  9
$CHAMFERB
 40
0.0
  9
$CHAMFERC
 40
0.0
  9
$CHAMFERD
 40
0.0
  9
$SKPOLY
 70
     0
  9
$TDCREATE
 40
2451277.438020833
  9
$TDUCREATE
 40
2451277.063021875
  9
$TDUPDATE
 40
2459775.695497685
  9
$TDUUPDATE
 40
2459775.320497685
  9
$TDINDWG
 40
0.0214978935
  9
$TDUSRTIMER
 40
0.0214978935
  9
$USRTIMER
 70
     1
  9
$ANGBASE
 50
0.0
  9
$ANGDIR
 70
     0
  9
$PDMODE
 70
     0
  9
$PDSIZE
 40
0.0
  9
$PLINEWID
 40
0.0
  9
$SPLFRAME
 70
     0
  9
$SPLINETYPE
 70
     6
  9
$SPLINESEGS
 70
     8
  9
$HANDSEED
  5
17A30
  9
$SURFTAB1
 70
     6
  9
$SURFTAB2
 70
     6
  9
$SURFTYPE
 70
     6
  9
$SURFU
 70
     6
  9
$SURFV
 70
     6
  9
$UCSBASE
  2

  9
$UCSNAME
  2

  9
$UCSORG
 10
0.0
 20
0.0
 30
0.0
  9
$UCSXDIR
 10
1.0
 20
0.0
 30
0.0
  9
$UCSYDIR
 10
0.0
 20
1.0
 30
0.0
  9
$UCSORTHOREF
  2

  9
$UCSORTHOVIEW
 70
     0
  9
$UCSORGTOP
 10
0.0
 20
0.0
 30
0.0
  9
$UCSORGBOTTOM
 10
0.0
 20
0.0
 30
0.0
  9
$UCSORGLEFT
 10
0.0
 20
0.0
 30
0.0
  9
$UCSORGRIGHT
 10
0.0
 20
0.0
 30
0.0
  9
$UCSORGFRONT
 10
0.0
 20
0.0
 30
0.0
  9
$UCSORGBACK
 10
0.0
 20
0.0
 30
0.0
  9
$PUCSBASE
  2

  9
$PUCSNAME
  2

  9
$PUCSORG
 10
0.0
 20
0.0
 30
0.0
  9
$PUCSXDIR
 10
1.0
 20
0.0
 30
0.0
  9
$PUCSYDIR
 10
0.0
 20
1.0
 30
0.0
  9
$PUCSORTHOREF
  2

  9
$PUCSORTHOVIEW
 70
     0
  9
$PUCSORGTOP
 10
0.0
 20
0.0
 30
0.0
  9
$PUCSORGBOTTOM
 10
0.0
 20
0.0
 30
0.0
  9
$PUCSORGLEFT
 10
0.0
 20
0.0
 30
0.0
  9
$PUCSORGRIGHT
 10
0.0
 20
0.0
 30
0.0
  9
$PUCSORGFRONT
 10
0.0
 20
0.0
 30
0.0
  9
$PUCSORGBACK
 10
0.0
 20
0.0
 30
0.0
  9
$USERI1
 70
     0
  9
$USERI2
 70
     0
  9
$USERI3
 70
     0
  9
$USERI4
 70
     0
  9
$USERI5
 70
     0
  9
$USERR1
 40
0.0
  9
$USERR2
 40
0.0
  9
$USERR3
 40
0.0
  9
$USERR4
 40
0.0
  9
$USERR5
 40
0.0
  9
$WORLDVIEW
 70
     1
  9
$SHADEDGE
 70
     3
  9
$SHADEDIF
 70
    70
  9
$TILEMODE
 70
     1
  9
$MAXACTVP
 70
    16
  9
$PINSBASE
 10
0.0
 20
0.0
 30
0.0
  9
$PLIMCHECK
 70
     0
  9
$PEXTMIN
 10
0.0
 20
0.0
 30
0.0
  9
$PEXTMAX
 10
0.0
 20
0.0
 30
0.0
  9
$PLIMMIN
 10
0.0
 20
0.0
  9
$PLIMMAX
 10
12.0
 20
9.0
  9
$UNITMODE
 70
     0
  9
$VISRETAIN
 70
     0
  9
$PLINEGEN
 70
     0
  9
$PSLTSCALE
 70
     1
  9
$TREEDEPTH
 70
  3020
  9
$CMLSTYLE
  2
Standard
  9
$CMLJUST
 70
     0
  9
$CMLSCALE
 40
1.0
  9
$PROXYGRAPHICS
 70
     1
  9
$MEASUREMENT
 70
     0
  9
$CELWEIGHT
370
    -1
  9
$ENDCAPS
280
     0
  9
$JOINSTYLE
280
     0
  9
$LWDISPLAY
290
     0
  9
$INSUNITS
 70
     0
  9
$HYPERLINKBASE
  1

  9
$STYLESHEET
  1

  9
$XEDIT
290
     1
  9
$CEPSNTYPE
380
     0
  9
$PSTYLEMODE
290
     1
  9
$FINGERPRINTGUID
  2
{0791BF39-4863-11D7-B40E-00E000040FE5}
  9
$VERSIONGUID
  2
{AAA19961-174B-254B-AF9F-9C74D16CE1C0}
  9
$EXTNAMES
290
     1
  9
$PSVPSCALE
 40
0.0
  9
$OLESTARTUP
290
     0
  9
$SORTENTS
280
   127
  9
$INDEXCTL
280
     0
  9
$HIDETEXT
280
     0
  9
$XCLIPFRAME
280
     2
  9
$HALOGAP
280
     0
  9
$OBSCOLOR
 70
   257
  9
$OBSLTYPE
280
     0
  9
$INTERSECTIONDISPLAY
280
     0
  9
$INTERSECTIONCOLOR
 70
   257
  9
$DIMASSOC
280
     1
  9
$PROJECTNAME
  1

  9
$CAMERADISPLAY
290
     0
  9
$LENSLENGTH
 40
50.0
  9
$CAMERAHEIGHT
 40
0.0
  9
$STEPSPERSEC
 40
2.0
  9
$STEPSIZE
 40
6.0
  9
$3DDWFPREC
 40
2.0
  9
$PSOLWIDTH
 40
0.25
  9
$PSOLHEIGHT
 40
4.0
  9
$LOFTANG1
 40
1.570796326794896
  9
$LOFTANG2
 40
1.570796326794896
  9
$LOFTMAG1
 40
0.0
  9
$LOFTMAG2
 40
0.0
  9
$LOFTPARAM
 70
     7
  9
$LOFTNORMALS
280
     1
  9
$LATITUDE
 40
37.795
  9
$LONGITUDE
 40
-122.394
  9
$NORTHDIRECTION
 40
0.0
  9
$TIMEZONE
 70
 -8000
  9
$LIGHTGLYPHDISPLAY
280
     1
  9
$TILEMODELIGHTSYNCH
280
     1
  9
$CMATERIAL
347
17993
  9
$SOLIDHIST
280
     0
  9
$SHOWHIST
280
     1
  9
$DWFFRAME
280
     2
  9
$DGNFRAME
280
     0
  9
$REALWORLDSCALE
290
     1
  9
$INTERFERECOLOR
 62
     1
  9
$INTERFEREOBJVS
345
179B5
  9
$INTERFEREVPVS
346
179B2
  9
$CSHADOW
280
     0
  9
$SHADOWPLANELOCATION
 40
0.0
  0
ENDSEC
  0
SECTION
  2
CLASSES
  0
CLASS
  1
ACDBDICTIONARYWDFLT
  2
AcDbDictionaryWithDefault
  3
ObjectDBX Classes
 90
        0
 91
        1
280
     0
281
     0
  0
CLASS
  1
MATERIAL
  2
AcDbMaterial
  3
ObjectDBX Classes
 90
     1153
 91
        3
280
     0
281
     0
  0
CLASS
  1
VISUALSTYLE
  2
AcDbVisualStyle
  3
ObjectDBX Classes
 90
     4095
 91
       24
280
     0
281
     0
  0
CLASS
  1
TABLESTYLE
  2
AcDbTableStyle
  3
ObjectDBX Classes
 90
     4095
 91
        1
280
     0
281
     0
  0
CLASS
  1
SCALE
  2
AcDbScale
  3
ObjectDBX Classes
 90
     1153
 91
        1
280
     0
281
     0
  0
CLASS
  1
MLEADERSTYLE
  2
AcDbMLeaderStyle
  3
ACDB_MLEADERSTYLE_CLASS
 90
     4095
 91
        1
280
     0
281
     0
  0
CLASS
  1
ACDBSECTIONVIEWSTYLE
  2
AcDbSectionViewStyle
  3
ObjectDBX Classes
 90
     1025
 91
        1
280
     0
281
     0
  0
CLASS
  1
ACDBDETAILVIEWSTYLE
  2
AcDbDetailViewStyle
  3
ObjectDBX Classes
 90
     1025
 91
        1
280
     0
281
     0
  0
CLASS
  1
DICTIONARYVAR
  2
AcDbDictionaryVar
  3
ObjectDBX Classes
 90
        0
 91
       18
280
     0
281
     0
  0
CLASS
  1
CELLSTYLEMAP
  2
AcDbCellStyleMap
  3
ObjectDBX Classes
 90
     1152
 91
        1
280
     0
281
     0
  0
ENDSEC
  0
SECTION
  2
TABLES
  0
TABLE
  2
VPORT
  5
DE6E
330
0
100
AcDbSymbolTable
 70
     1
  0
VPORT
  5
17990
330
DE6E
100
AcDbSymbolTableRecord
100
AcDbViewportTableRecord
  2
*Active
 70
     0
 10
0.0
 20
0.0
 11
1.0
 21
1.0
 12
39.52443189732657
 22
71.77171374493247
 13
0.0
 23
0.0
 14
1.0
 24
1.0
 15
5.0
 25
5.0
 16
0.0
 26
0.0
 36
1.0
 17
0.0
 27
0.0
 37
0.0
 40
133.4367730544439
 41
2.277167277167277
 42
50.0
 43
0.0
 44
0.0
 50
0.0
 51
0.0
 71
     0
 72
   100
 73
     1
 74
     1
 75
     1
 76
     0
 77
     0
 78
     0
281
     0
 65
     1
110
0.0
120
0.0
130
0.0
111
1.0
121
0.0
131
0.0
112
0.0
122
1.0
132
0.0
 79
     0
146
0.0
348
179B1
 60
     3
 61
     5
292
     1
282
     1
141
0.0
142
0.0
 63
   250
421
  3355443
1001
ACAD_NAV_VCDISPLAY
1070
     3
  0
ENDTAB
  0
TABLE
  2
LTYPE
  5
DE6B
330
0
100
AcDbSymbolTable
 70
     3
  0
LTYPE
  5
DE79
330
DE6B
100
AcDbSymbolTableRecord
100
AcDbLinetypeTableRecord
  2
ByBlock
 70
     0
  3

 72
    65
 73
     0
 40
0.0
  0
LTYPE
  5
DE7A
330
DE6B
100
AcDbSymbolTableRecord
100
AcDbLinetypeTableRecord
  2
ByLayer
 70
     0
  3

 72
    65
 73
     0
 40
0.0
  0
LTYPE
  5
DE7B
330
DE6B
100
AcDbSymbolTableRecord
100
AcDbLinetypeTableRecord
  2
CONTINUOUS
 70
     0
  3
Solid line
 72
    65
 73
     0
 40
0.0
  0
ENDTAB
  0
TABLE
  2
LAYER
  5
DE68
330
0
100
AcDbSymbolTable
 70
     1
  0
LAYER
  5
DE76
102
{ACAD_XDICTIONARY
360
179E0
102
}
330
DE68
100
AcDbSymbolTableRecord
100
AcDbLayerTableRecord
  2
0
 70
     0
 62
     7
  6
CONTINUOUS
370
    -3
390
DE75
347
179A3
  0
ENDTAB
  0
TABLE
  2
STYLE
  5
DE69
330
0
100
AcDbSymbolTable
 70
     1
  0
STYLE
  5
DE77
330
DE69
100
AcDbSymbolTableRecord
100
AcDbTextStyleTableRecord
  2
STANDARD
 70
     0
 40
0.0
 41
1.0
 50
0.0
 71
     0
 42
3.149999999999999
  3
romans.shx
  4
bigfont.shx
  0
ENDTAB
  0
TABLE
  2
VIEW
  5
DE6C
330
0
100
AcDbSymbolTable
 70
     0
  0
ENDTAB
  0
TABLE
  2
UCS
  5
DE6D
330
0
100
AcDbSymbolTable
 70
     0
  0
ENDTAB
  0
TABLE
  2
APPID
  5
DE6F
330
0
100
AcDbSymbolTable
 70
     6
  0
APPID
  5
DE78
330
DE6F
100
AcDbSymbolTableRecord
100
AcDbRegAppTableRecord
  2
ACAD
 70
     0
  0
APPID
  5
179D9
330
DE6F
100
AcDbSymbolTableRecord
100
AcDbRegAppTableRecord
  2
ACAD_EXEMPT_FROM_CAD_STANDARDS
 70
     0
  0
APPID
  5
179DC
330
DE6F
100
AcDbSymbolTableRecord
100
AcDbRegAppTableRecord
  2
AcadAnnoPO
 70
     0
  0
APPID
  5
179DE
330
DE6F
100
AcDbSymbolTableRecord
100
AcDbRegAppTableRecord
  2
ACAD_DSTYLE_DIMJAG
 70
     0
  0
APPID
  5
179DF
330
DE6F
100
AcDbSymbolTableRecord
100
AcDbRegAppTableRecord
  2
ACAD_DSTYLE_DIMTALN
 70
     0
  0
APPID
  5
179E2
330
DE6F
100
AcDbSymbolTableRecord
100
AcDbRegAppTableRecord
  2
ACAD_NAV_VCDISPLAY
 70
     0
  0
ENDTAB
  0
TABLE
  2
DIMSTYLE
  5
DE70
330
0
100
AcDbSymbolTable
 70
     1
100
AcDbDimStyleTable
 71
     1
340
DE9A
  0
DIMSTYLE
105
DE9A
330
DE70
100
AcDbSymbolTableRecord
100
AcDbDimStyleTableRecord
  2
Standard
 70
     0
 73
     0
 78
     8
 79
     2
340
DE77
1001
ACAD_DSTYLE_DIMJAG
1070
   388
1040
1.5
1001
ACAD_DSTYLE_DIMTALN
1070
   392
1070
     0
  0
ENDTAB
  0
TABLE
  2
BLOCK_RECORD
  5
DE67
330
0
100
AcDbSymbolTable
 70
     2
  0
BLOCK_RECORD
  5
DE84
102
{ACAD_XDICTIONARY
360
DEA8
102
}
330
DE67
100
AcDbSymbolTableRecord
100
AcDbBlockTableRecord
  2
*Model_Space
340
DE87
 70
     0
280
     1
281
     0
  0
BLOCK_RECORD
  5
179D2
330
DE67
100
AcDbSymbolTableRecord
100
AcDbBlockTableRecord
  2
*Paper_Space
340
179D3
 70
     0
280
     1
281
     0
  0
ENDTAB
  0
ENDSEC
  0
SECTION
  2
BLOCKS
  0
BLOCK
  5
DE95
330
DE84
100
AcDbEntity
  8
0
100
AcDbBlockBegin
  2
*Model_Space
 70
     0
 10
0.0
 20
0.0
 30
0.0
  3
*Model_Space
  1

  0
ENDBLK
  5
DE96
330
DE84
100
AcDbEntity
  8
0
100
AcDbBlockEnd
  0
BLOCK
  5
179D4
330
179D2
100
AcDbEntity
 67
     1
  8
0
100
AcDbBlockBegin
  2
*Paper_Space
 70
     0
 10
0.0
 20
0.0
 30
0.0
  3
*Paper_Space
  1

  0
ENDBLK
  5
179D5
330
179D2
100
AcDbEntity
 67
     1
  8
0
100
AcDbBlockEnd
  0
ENDSEC
  0
SECTION
  2
ENTITIES
  0
TEXT
  5
8A64
330
DE84
100
AcDbEntity
  8
0
100
AcDbText
 10
5.0
 20
15.0
 30
0.0
 40
3.149999999999999
  1
耐圧防爆型
100
AcDbText
  0
ARC
  5
12C3D
330
DE84
100
AcDbEntity
  8
0
100
AcDbCircle
 10
54.89999999999998
 20
107.75
 30
0.0
 40
3.0
100
AcDbArc
 50
90.0
 51
180.0
  0
LINE
  5
12C3E
330
DE84
100
AcDbEntity
  8
0
100
AcDbLine
 10
49.0
 20
112.5
 30
0.0
 11
49.0
 21
111.0
 31
0.0
  0
LINE
  5
12C3F
330
DE84
100
AcDbEntity
  8
0
100
AcDbLine
 10
70.24999999999988
 20
120.1000000000001
 30
0.0
 11
70.25
 21
108.4258232721226
 31
0.0
  0
LINE
  5
12C41
330
DE84
100
AcDbEntity
  8
0
100
AcDbLine
 10
74.05000000000007
 20
137.1000000000001
 30
0.0
 11
74.05000000000007
 21
38.0
 31
0.0
  0
ARC
  5
12C42
330
DE84
100
AcDbEntity
  8
0
100
AcDbCircle
 10
25.10000000000002
 20
107.75
 30
0.0
 40
3.0
100
AcDbArc
 50
0.0
 51
90.0
  0
LINE
  5
12C43
330
DE84
100
AcDbEntity
  8
0
100
AcDbLine
 10
31.0
 20
112.5
 30
0.0
 11
31.0
 21
111.0
 31
0.0
  0
LINE
  5
12C44
330
DE84
100
AcDbEntity
  8
0
100
AcDbLine
 10
9.749999999999886
 20
120.1000000000001
 30
0.0
 11
9.75
 21
108.4258232721226
 31
0.0
  0
LINE
  5
12C47
330
DE84
100
AcDbEntity
  8
0
100
AcDbLine
 10
5.949999999999931
 20
137.1000000000001
 30
0.0
 11
5.949999999999931
 21
38.0
 31
0.0
  0
CIRCLE
  5
12EA2
330
DE84
100
AcDbEntity
  8
0
100
AcDbCircle
 10
40.0
 20
48.5
 30
0.0
 40
19.65
  0
ARC
  5
12EA3
330
DE84
100
AcDbEntity
  8
0
100
AcDbCircle
 10
44.65874281184528
 20
65.88666487320347
 30
0.0
 40
1.65
100
AcDbArc
 50
165.0000000000055
 51
345.0000000000056
  0
ARC
  5
12EA4
330
DE84
100
AcDbEntity
  8
0
100
AcDbCircle
 10
35.34125718815449
 20
65.88666487320324
 30
0.0
 40
1.65
100
AcDbArc
 50
194.9999999999944
 51
14.99999999999445
  0
ARC
  5
12EA5
330
DE84
100
AcDbEntity
  8
0
100
AcDbCircle
 10
35.34125718815449
 20
65.88666487320324
 30
0.0
 40
2.3
100
AcDbArc
 50
194.9999999999944
 51
14.99999999999445
  0
ARC
  5
12EA6
330
DE84
100
AcDbEntity
  8
0
100
AcDbCircle
 10
44.65874281184528
 20
65.88666487320347
 30
0.0
 40
2.3
100
AcDbArc
 50
165.0000000000055
 51
345.0000000000056
  0
LINE
  5
12EA7
330
DE84
100
AcDbEntity
  8
0
100
AcDbLine
 10
70.25
 20
73.07417672787756
 30
0.0
 11
70.25
 21
54.90000000000009
 31
0.0
  0
LINE
  5
12EA8
330
DE84
100
AcDbEntity
  8
0
100
AcDbLine
 10
9.75
 20
73.07417672787756
 30
0.0
 11
9.75
 21
54.90000000000009
 31
0.0
  0
LINE
  5
12EA9
330
DE84
100
AcDbEntity
  8
0
100
AcDbLine
 10
22.18628370237764
 20
51.5649651984686
 30
0.0
 11
20.65953878502558
 21
51.97405526612124
 31
0.0
  0
ARC
  5
12EAB
330
DE84
100
AcDbEntity
  8
0
100
AcDbCircle
 10
22.61333512679687
 20
43.84125718815448
 30
0.0
 40
1.65
100
AcDbArc
 50
284.9999999999944
 51
104.9999999999944
  0
ARC
  5
12EAC
330
DE84
100
AcDbEntity
  8
0
100
AcDbCircle
 10
22.61333512679687
 20
43.84125718815448
 30
0.0
 40
2.3
100
AcDbArc
 50
284.9999999999944
 51
104.9999999999944
  0
LINE
  5
12EAD
330
DE84
100
AcDbEntity
  8
0
100
AcDbLine
 10
22.18628370237764
 20
45.43503480153162
 30
0.0
 11
20.65953878502558
 21
45.02594473387898
 31
0.0
  0
LINE
  5
12EAE
330
DE84
100
AcDbEntity
  8
0
100
AcDbLine
 10
22.01805132306106
 20
46.06288658861944
 30
0.0
 11
20.55474113544858
 21
45.67079380557243
 31
0.0
  0
LINE
  5
12EB1
330
DE84
100
AcDbEntity
  8
0
100
AcDbLine
 10
22.01805132306083
 20
50.93711341138055
 30
0.0
 11
20.55474113544858
 21
51.32920619442757
 31
0.0
  0
LINE
  5
12EB2
330
DE84
100
AcDbEntity
  8
0
100
AcDbLine
 10
6.050000000000068
 20
54.90000000000009
 30
0.0
 11
21.42145054101377
 21
54.90000000000009
 31
0.0
  0
LINE
  5
12EB3
330
DE84
100
AcDbEntity
  8
0
100
AcDbLine
 10
9.75
 20
51.10000000000013
 30
0.0
 11
9.75
 21
38.0
 31
0.0
  0
LINE
  5
12EB4
330
DE84
100
AcDbEntity
  8
0
100
AcDbLine
 10
5.949999999999931
 20
38.0
 30
0.0
 11
7.149999999999977
 21
38.0
 31
0.0
  0
ARC
  5
12EB6
330
DE84
100
AcDbEntity
  8
0
100
AcDbCircle
 10
7.850000000000022
 20
40.0
 30
0.0
 40
0.7000000000000001
100
AcDbArc
 50
0.0
 51
180.0
  0
LINE
  5
12EB8
330
DE84
100
AcDbEntity
  8
0
100
AcDbLine
 10
8.550000000000068
 20
40.0
 30
0.0
 11
8.550000000000068
 21
38.0
 31
0.0
  0
LINE
  5
12EB9
330
DE84
100
AcDbEntity
  8
0
100
AcDbLine
 10
7.149999999999977
 20
40.0
 30
0.0
 11
7.149999999999977
 21
38.0
 31
0.0
  0
LINE
  5
12EBA
330
DE84
100
AcDbEntity
  8
0
100
AcDbLine
 10
8.550000000000068
 20
38.0
 30
0.0
 11
9.75
 21
38.0
 31
0.0
  0
LINE
  5
12EBB
330
DE84
100
AcDbEntity
  8
0
100
AcDbLine
 10
6.050000000000068
 20
51.10000000000013
 30
0.0
 11
6.050000000000068
 21
54.90000000000009
 31
0.0
  0
CIRCLE
  5
12EBD
330
DE84
100
AcDbEntity
  8
0
100
AcDbCircle
 10
7.850000000000022
 20
53.0
 30
0.0
 40
0.65
  0
LINE
  5
12EBF
330
DE84
100
AcDbEntity
  8
0
100
AcDbLine
 10
6.050000000000068
 20
51.10000000000013
 30
0.0
 11
20.52276970408787
 21
51.10000000000013
 31
0.0
  0
ARC
  5
12EC1
330
DE84
100
AcDbEntity
  8
0
100
AcDbCircle
 10
57.38666487320324
 20
43.84125718815494
 30
0.0
 40
2.3
100
AcDbArc
 50
75.00000000000555
 51
255.0000000000056
  0
LINE
  5
12EC2
330
DE84
100
AcDbEntity
  8
0
100
AcDbLine
 10
56.79138106946755
 20
41.61962778768997
 30
0.0
 11
58.2546912570798
 21
41.22753500464296
 31
0.0
  0
LINE
  5
12EC4
330
DE84
100
AcDbEntity
  8
0
100
AcDbLine
 10
23.20861893053268
 20
41.61962778768975
 30
0.0
 11
21.74530874292031
 21
41.22753500464296
 31
0.0
  0
LINE
  5
12EC5
330
DE84
100
AcDbEntity
  8
0
100
AcDbLine
 10
70.25
 20
51.10000000000013
 30
0.0
 11
70.25
 21
38.0
 31
0.0
  0
ARC
  5
12EC6
330
DE84
100
AcDbEntity
  8
0
100
AcDbCircle
 10
52.72792206135784
 20
35.77207793864227
 30
0.0
 40
1.65
100
AcDbArc
 50
44.99999999999078
 51
224.9999999999908
  0
ARC
  5
12EC9
330
DE84
100
AcDbEntity
  8
0
100
AcDbCircle
 10
52.72792206135784
 20
35.77207793864227
 30
0.0
 40
2.3
100
AcDbArc
 50
44.99999999999078
 51
224.9999999999908
  0
LINE
  5
12ECA
330
DE84
100
AcDbEntity
  8
0
100
AcDbLine
 10
53.89464825031552
 20
36.93880412759995
 30
0.0
 11
55.01230310001495
 21
35.82114927790076
 31
0.0
  0
LINE
  5
12ECB
330
DE84
100
AcDbEntity
  8
0
100
AcDbLine
 10
25.0
 20
25.0
 30
0.0
 11
55.0
 21
25.0
 31
0.0
  0
ARC
  5
12ECD
330
DE84
100
AcDbEntity
  8
0
100
AcDbCircle
 10
44.65874281184551
 20
31.11333512679698
 30
0.0
 40
1.65
100
AcDbArc
 50
14.99999999999445
 51
194.9999999999944
  0
LINE
  5
12ECE
330
DE84
100
AcDbEntity
  8
0
100
AcDbLine
 10
42.43711341138066
 20
30.51805132306095
 30
0.0
 11
42.82920619442757
 21
29.05474113544869
 31
0.0
  0
LINE
  5
12ECF
330
DE84
100
AcDbEntity
  8
0
100
AcDbLine
 10
43.06496519846848
 20
30.68628370237775
 30
0.0
 11
43.47405526612135
 21
29.15953878502569
 31
0.0
  0
LINE
  5
12ED1
330
DE84
100
AcDbEntity
  8
0
100
AcDbLine
 10
36.93503480153152
 20
30.68628370237775
 30
0.0
 11
36.52594473387888
 21
29.15953878502569
 31
0.0
  0
LINE
  5
12ED2
330
DE84
100
AcDbEntity
  8
0
100
AcDbLine
 10
37.56288658861957
 20
30.51805132306095
 30
0.0
 11
37.17079380557255
 21
29.05474113544869
 31
0.0
  0
ARC
  5
12ED3
330
DE84
100
AcDbEntity
  8
0
100
AcDbCircle
 10
44.65874281184551
 20
31.11333512679698
 30
0.0
 40
2.3
100
AcDbArc
 50
14.99999999999445
 51
194.9999999999944
  0
LINE
  5
12ED4
330
DE84
100
AcDbEntity
  8
0
100
AcDbLine
 10
24.0
 20
37.09287503355927
 30
0.0
 11
24.0
 21
26.0
 31
0.0
  0
ARC
  5
12ED5
330
DE84
100
AcDbEntity
  8
0
100
AcDbCircle
 10
25.0
 20
26.0
 30
0.0
 40
1.0
100
AcDbArc
 50
180.0
 51
270.0
  0
ARC
  5
12ED6
330
DE84
100
AcDbEntity
  8
0
100
AcDbCircle
 10
35.34125718815483
 20
31.11333512679676
 30
0.0
 40
2.3
100
AcDbArc
 50
345.0000000000056
 51
165.0000000000055
  0
ARC
  5
12ED8
330
DE84
100
AcDbEntity
  8
0
100
AcDbCircle
 10
35.34125718815483
 20
31.11333512679676
 30
0.0
 40
1.65
100
AcDbArc
 50
345.0000000000056
 51
165.0000000000055
  0
CIRCLE
  5
12ED9
330
DE84
100
AcDbEntity
  8
0
100
AcDbCircle
 10
35.34125718815483
 20
31.11333512679676
 30
0.0
 40
1.074999999999999
  0
CIRCLE
  5
12EDA
330
DE84
100
AcDbEntity
  8
0
100
AcDbCircle
 10
27.27207793864216
 20
35.77207793864227
 30
0.0
 40
1.074999999999999
  0
LINE
  5
12EDC
330
DE84
100
AcDbEntity
  8
0
100
AcDbLine
 10
28.43880412759984
 20
34.60535174968459
 30
0.0
 11
27.32114927790064
 21
33.48769689998517
 31
0.0
  0
ARC
  5
12EDD
330
DE84
100
AcDbEntity
  8
0
100
AcDbCircle
 10
27.27207793864216
 20
35.77207793864227
 30
0.0
 40
1.65
100
AcDbArc
 50
315.0000000000092
 51
135.0000000000092
  0
ARC
  5
12EDE
330
DE84
100
AcDbEntity
  8
0
100
AcDbCircle
 10
27.27207793864216
 20
35.77207793864227
 30
0.0
 40
2.3
100
AcDbArc
 50
315.0000000000092
 51
135.0000000000092
  0
LINE
  5
12EDF
330
DE84
100
AcDbEntity
  8
0
100
AcDbLine
 10
28.89842353537131
 20
34.14573234191312
 30
0.0
 11
27.82720613080585
 21
33.07451493734788
 31
0.0
  0
LINE
  5
12EE0
330
DE84
100
AcDbEntity
  8
0
100
AcDbLine
 10
33.11962778768986
 20
31.70861893053257
 30
0.0
 11
32.72753500464296
 21
30.24530874292032
 31
0.0
  0
LINE
  5
12EE1
330
DE84
100
AcDbEntity
  8
0
100
AcDbLine
 10
33.74747957477769
 20
31.54038655121599
 30
0.0
 11
33.33838950712482
 21
30.01364163386393
 31
0.0
  0
LINE
  5
12EE3
330
DE84
100
AcDbEntity
  8
0
100
AcDbLine
 10
26.10535174968436
 20
36.93880412759995
 30
0.0
 11
24.98769689998506
 21
35.82114927790076
 31
0.0
  0
LINE
  5
12EE4
330
DE84
100
AcDbEntity
  8
0
100
AcDbLine
 10
25.64573234191312
 20
37.39842353537119
 30
0.0
 11
24.57451493734777
 21
36.32720613080574
 31
0.0
  0
CIRCLE
  5
12EE5
330
DE84
100
AcDbEntity
  8
0
100
AcDbCircle
 10
52.72792206135784
 20
35.77207793864227
 30
0.0
 40
1.074999999999999
  0
CIRCLE
  5
12EE6
330
DE84
100
AcDbEntity
  8
0
100
AcDbCircle
 10
44.65874281184551
 20
31.11333512679698
 30
0.0
 40
1.074999999999999
  0
LINE
  5
12EE7
330
DE84
100
AcDbEntity
  8
0
100
AcDbLine
 10
46.88037221231025
 20
31.7086189305328
 30
0.0
 11
47.27246499535715
 21
30.24530874292032
 31
0.0
  0
LINE
  5
12EE8
330
DE84
100
AcDbEntity
  8
0
100
AcDbLine
 10
46.25252042522231
 20
31.54038655121599
 30
0.0
 11
46.66161049287518
 21
30.01364163386393
 31
0.0
  0
LINE
  5
12EE9
330
DE84
100
AcDbEntity
  8
0
100
AcDbLine
 10
51.10157646462892
 20
34.14573234191312
 30
0.0
 11
52.17279386919426
 21
33.07451493734788
 31
0.0
  0
LINE
  5
12EEA
330
DE84
100
AcDbEntity
  8
0
100
AcDbLine
 10
51.56119587240016
 20
34.60535174968436
 30
0.0
 11
52.67885072209935
 21
33.48769689998517
 31
0.0
  0
LINE
  5
12EEC
330
DE84
100
AcDbEntity
  8
0
100
AcDbLine
 10
56.0
 20
37.09287503355927
 30
0.0
 11
56.0
 21
26.0
 31
0.0
  0
ARC
  5
12EED
330
DE84
100
AcDbEntity
  8
0
100
AcDbCircle
 10
55.0
 20
26.0
 30
0.0
 40
1.0
100
AcDbArc
 50
270.0
 51
0.0
  0
LINE
  5
12EEE
330
DE84
100
AcDbEntity
  8
0
100
AcDbLine
 10
70.25
 20
38.0
 30
0.0
 11
71.44999999999993
 21
38.0
 31
0.0
  0
LINE
  5
12EEF
330
DE84
100
AcDbEntity
  8
0
100
AcDbLine
 10
70.25
 20
38.0
 30
0.0
 11
71.44999999999993
 21
38.0
 31
0.0
  0
LINE
  5
12EF0
330
DE84
100
AcDbEntity
  8
0
100
AcDbLine
 10
54.35426765808699
 20
37.39842353537142
 30
0.0
 11
55.42548506265223
 21
36.32720613080596
 31
0.0
  0
LINE
  5
12EF1
330
DE84
100
AcDbEntity
  8
0
100
AcDbLine
 10
72.85000000000002
 20
40.0
 30
0.0
 11
72.85000000000002
 21
38.0
 31
0.0
  0
LINE
  5
12EF2
330
DE84
100
AcDbEntity
  8
0
100
AcDbLine
 10
72.85000000000002
 20
38.0
 30
0.0
 11
74.05000000000007
 21
38.0
 31
0.0
  0
LINE
  5
12EF4
330
DE84
100
AcDbEntity
  8
0
100
AcDbLine
 10
71.44999999999993
 20
40.0
 30
0.0
 11
71.44999999999993
 21
38.0
 31
0.0
  0
ARC
  5
12EF5
330
DE84
100
AcDbEntity
  8
0
100
AcDbCircle
 10
72.14999999999998
 20
40.0
 30
0.0
 40
0.7000000000000001
100
AcDbArc
 50
0.0
 51
180.0
  0
ARC
  5
12EF7
330
DE84
100
AcDbEntity
  8
0
100
AcDbCircle
 10
52.72792206135784
 20
61.22792206135819
 30
0.0
 40
2.3
100
AcDbArc
 50
135.0000000000092
 51
315.0000000000092
  0
LINE
  5
12EF8
330
DE84
100
AcDbEntity
  8
0
100
AcDbLine
 10
53.89464825031564
 20
60.06119587240028
 30
0.0
 11
55.01230310001495
 21
61.17885072209947
 31
0.0
  0
CIRCLE
  5
12EFB
330
DE84
100
AcDbEntity
  8
0
100
AcDbCircle
 10
22.61333512679676
 20
53.15874281184552
 30
0.0
 40
1.074999999999999
  0
ARC
  5
12EFC
330
DE84
100
AcDbEntity
  8
0
100
AcDbCircle
 10
22.61333512679676
 20
53.15874281184552
 30
0.0
 40
2.3
100
AcDbArc
 50
255.0000000000056
 51
75.00000000000555
  0
ARC
  5
12EFD
330
DE84
100
AcDbEntity
  8
0
100
AcDbCircle
 10
22.61333512679676
 20
53.15874281184552
 30
0.0
 40
1.65
100
AcDbArc
 50
255.0000000000056
 51
75.00000000000555
  0
CIRCLE
  5
12EFF
330
DE84
100
AcDbEntity
  8
0
100
AcDbCircle
 10
22.61333512679687
 20
43.84125718815448
 30
0.0
 40
1.074999999999999
  0
LINE
  5
12F00
330
DE84
100
AcDbEntity
  8
0
100
AcDbLine
 10
23.0403865512161
 20
42.2474795747778
 30
0.0
 11
21.51364163386381
 21
41.83838950712493
 31
0.0
  0
CIRCLE
  5
12F01
330
DE84
100
AcDbEntity
  8
0
100
AcDbCircle
 10
27.27207793864204
 20
61.22792206135796
 30
0.0
 40
1.074999999999999
  0
ARC
  5
12F02
330
DE84
100
AcDbEntity
  8
0
100
AcDbCircle
 10
27.27207793864204
 20
61.22792206135796
 30
0.0
 40
2.3
100
AcDbArc
 50
224.9999999999908
 51
44.99999999999078
  0
ARC
  5
12F03
330
DE84
100
AcDbEntity
  8
0
100
AcDbCircle
 10
27.27207793864204
 20
61.22792206135796
 30
0.0
 40
1.65
100
AcDbArc
 50
224.9999999999908
 51
44.99999999999078
  0
LINE
  5
12F04
330
DE84
100
AcDbEntity
  8
0
100
AcDbLine
 10
23.04038655121587
 20
54.75252042522242
 30
0.0
 11
21.51364163386381
 21
55.16161049287529
 31
0.0
  0
LINE
  5
12F05
330
DE84
100
AcDbEntity
  8
0
100
AcDbLine
 10
23.20861893053245
 20
55.38037221231025
 30
0.0
 11
21.7453087429202
 21
55.77246499535727
 31
0.0
  0
LINE
  5
12F06
330
DE84
100
AcDbEntity
  8
0
100
AcDbLine
 10
26.10535174968447
 20
60.06119587240028
 30
0.0
 11
24.98769689998506
 21
61.17885072209947
 31
0.0
  0
LINE
  5
12F07
330
DE84
100
AcDbEntity
  8
0
100
AcDbLine
 10
25.645732341913
 20
59.60157646462903
 30
0.0
 11
24.57451493734777
 21
60.67279386919427
 31
0.0
  0
LINE
  5
12F08
330
DE84
100
AcDbEntity
  8
0
100
AcDbLine
 10
28.43880412759984
 20
62.39464825031564
 30
0.0
 11
27.32114927790064
 21
63.51230310001506
 31
0.0
  0
LINE
  5
12F09
330
DE84
100
AcDbEntity
  8
0
100
AcDbLine
 10
28.89842353537108
 20
62.85426765808688
 30
0.0
 11
27.82720613080574
 21
63.92548506265234
 31
0.0
  0
ARC
  5
12F0C
330
DE84
100
AcDbEntity
  8
0
100
AcDbCircle
 10
52.72792206135784
 20
61.22792206135819
 30
0.0
 40
1.65
100
AcDbArc
 50
135.0000000000092
 51
315.0000000000092
  0
CIRCLE
  5
12F0D
330
DE84
100
AcDbEntity
  8
0
100
AcDbCircle
 10
52.72792206135784
 20
61.22792206135819
 30
0.0
 40
1.074999999999999
  0
LINE
  5
12F0E
330
DE84
100
AcDbEntity
  8
0
100
AcDbLine
 10
51.10157646462892
 20
62.85426765808711
 30
0.0
 11
52.17279386919415
 21
63.92548506265256
 31
0.0
  0
LINE
  5
12F0F
330
DE84
100
AcDbEntity
  8
0
100
AcDbLine
 10
51.56119587239993
 20
62.39464825031564
 30
0.0
 11
52.67885072209935
 21
63.51230310001506
 31
0.0
  0
CIRCLE
  5
12F10
330
DE84
100
AcDbEntity
  8
0
100
AcDbCircle
 10
57.38666487320324
 20
53.15874281184552
 30
0.0
 40
1.074999999999999
  0
ARC
  5
12F13
330
DE84
100
AcDbEntity
  8
0
100
AcDbCircle
 10
57.38666487320324
 20
53.15874281184552
 30
0.0
 40
1.65
100
AcDbArc
 50
104.9999999999944
 51
284.9999999999944
  0
ARC
  5
12F14
330
DE84
100
AcDbEntity
  8
0
100
AcDbCircle
 10
57.38666487320324
 20
53.15874281184552
 30
0.0
 40
2.3
100
AcDbArc
 50
104.9999999999944
 51
284.9999999999944
  0
CIRCLE
  5
12F15
330
DE84
100
AcDbEntity
  8
0
100
AcDbCircle
 10
72.14999999999998
 20
53.0
 30
0.0
 40
0.65
  0
CIRCLE
  5
12F16
330
DE84
100
AcDbEntity
  8
0
100
AcDbCircle
 10
68.14999999999997
 20
53.0
 30
0.0
 40
0.65
  0
LINE
  5
12F19
330
DE84
100
AcDbEntity
  8
0
100
AcDbLine
 10
73.94999999999993
 20
51.10000000000013
 30
0.0
 11
73.94999999999993
 21
54.90000000000009
 31
0.0
  0
LINE
  5
12F1A
330
DE84
100
AcDbEntity
  8
0
100
AcDbLine
 10
59.47723029591213
 20
51.10000000000013
 30
0.0
 11
73.94999999999993
 21
51.10000000000013
 31
0.0
  0
LINE
  5
12F1B
330
DE84
100
AcDbEntity
  8
0
100
AcDbLine
 10
57.81371629762237
 20
51.5649651984686
 30
0.0
 11
59.34046121497442
 21
51.97405526612147
 31
0.0
  0
ARC
  5
12F1C
330
DE84
100
AcDbEntity
  8
0
100
AcDbCircle
 10
57.38666487320324
 20
43.84125718815494
 30
0.0
 40
1.65
100
AcDbArc
 50
75.00000000000555
 51
255.0000000000056
  0
CIRCLE
  5
12F1D
330
DE84
100
AcDbEntity
  8
0
100
AcDbCircle
 10
57.38666487320324
 20
43.84125718815494
 30
0.0
 40
1.074999999999999
  0
LINE
  5
12F1E
330
DE84
100
AcDbEntity
  8
0
100
AcDbLine
 10
56.95961344878412
 20
42.2474795747778
 30
0.0
 11
58.48635836613619
 21
41.83838950712493
 31
0.0
  0
LINE
  5
12F20
330
DE84
100
AcDbEntity
  8
0
100
AcDbLine
 10
57.81371629762237
 20
45.43503480153162
 30
0.0
 11
59.34046121497442
 21
45.02594473387898
 31
0.0
  0
LINE
  5
12F21
330
DE84
100
AcDbEntity
  8
0
100
AcDbLine
 10
57.98194867693917
 20
46.06288658861967
 30
0.0
 11
59.44525886455142
 21
45.67079380557266
 31
0.0
  0
LINE
  5
12F22
330
DE84
100
AcDbEntity
  8
0
100
AcDbLine
 10
57.98194867693894
 20
50.93711341138078
 30
0.0
 11
59.44525886455142
 21
51.32920619442757
 31
0.0
  0
LINE
  5
12F25
330
DE84
100
AcDbEntity
  8
0
100
AcDbLine
 10
58.57854945898623
 20
54.90000000000009
 30
0.0
 11
73.94999999999993
 21
54.90000000000009
 31
0.0
  0
LINE
  5
12F26
330
DE84
100
AcDbEntity
  8
0
100
AcDbLine
 10
56.9596134487839
 20
54.75252042522242
 30
0.0
 11
58.48635836613619
 21
55.16161049287529
 31
0.0
  0
LINE
  5
12F27
330
DE84
100
AcDbEntity
  8
0
100
AcDbLine
 10
56.79138106946732
 20
55.38037221231025
 30
0.0
 11
58.25469125707968
 21
55.7724649953575
 31
0.0
  0
LINE
  5
12F28
330
DE84
100
AcDbEntity
  8
0
100
AcDbLine
 10
54.35426765808688
 20
59.60157646462903
 30
0.0
 11
55.42548506265223
 21
60.67279386919449
 31
0.0
  0
ARC
  5
12F29
330
DE84
100
AcDbEntity
  8
0
100
AcDbCircle
 10
21.59999999999991
 20
79.75
 30
0.0
 40
1.899999
100
AcDbArc
 50
74.63968248079985
 51
144.665540744328
  0
CIRCLE
  5
12F2A
330
DE84
100
AcDbEntity
  8
0
100
AcDbCircle
 10
21.59999999999991
 20
79.75
 30
0.0
 40
1.4
  0
ARC
  5
12F2B
330
DE84
100
AcDbEntity
  8
0
100
AcDbCircle
 10
21.59999999999991
 20
79.75
 30
0.0
 40
1.899999
100
AcDbArc
 50
231.9300593361817
 51
32.65207881484124
  0
ARC
  5
12F2C
330
DE84
100
AcDbEntity
  8
0
100
AcDbCircle
 10
18.49999999999988
 20
77.25
 30
0.0
 40
6.4
100
AcDbArc
 50
55.47531384320638
 51
124.5246825149829
  0
ARC
  5
12F2D
330
DE84
100
AcDbEntity
  8
0
100
AcDbCircle
 10
20.14321999999993
 20
75.34898000000021
 30
0.0
 40
1.899999
100
AcDbArc
 50
299.9003000000111
 51
35.00002999996312
  0
ARC
  5
12F2E
330
DE84
100
AcDbEntity
  8
0
100
AcDbCircle
 10
18.49999999999988
 20
77.25
 30
0.0
 40
6.4
100
AcDbArc
 50
235.4752810195455
 51
304.524682514983
  0
LINE
  5
12F2F
330
DE84
100
AcDbEntity
  8
0
100
AcDbLine
 10
19.90148999999997
 20
79.00674000000003
 30
0.0
 11
21.69960000000003
 21
76.43877000000021
 31
0.0
  0
LINE
  5
12F30
330
DE84
100
AcDbEntity
  8
0
100
AcDbLine
 10
20.12828999999999
 20
93.49999999999999
 30
0.0
 11
22.17335999999989
 21
90.57934000000022
 31
0.0
  0
ARC
  5
12F31
330
DE84
100
AcDbEntity
  8
0
100
AcDbCircle
 10
18.49999999999988
 20
90.75000000000001
 30
0.0
 40
6.4
100
AcDbArc
 50
235.4752810195455
 51
304.524682514983
  0
ARC
  5
12F32
330
DE84
100
AcDbEntity
  8
0
100
AcDbCircle
 10
17.99999999999988
 20
93.75
 30
0.0
 40
6.899999
100
AcDbArc
 50
238.4398000000013
 51
301.5601999999987
  0
ARC
  5
12F33
330
DE84
100
AcDbEntity
  8
0
100
AcDbCircle
 10
18.49999999999988
 20
90.75000000000001
 30
0.0
 40
6.4
100
AcDbArc
 50
55.47531748501702
 51
124.5246825149829
  0
LINE
  5
12F34
330
DE84
100
AcDbEntity
  8
0
100
AcDbLine
 10
20.12828999999999
 20
107.0
 30
0.0
 11
22.17335999999989
 21
104.0793400000002
 31
0.0
  0
ARC
  5
12F35
330
DE84
100
AcDbEntity
  8
0
100
AcDbCircle
 10
18.49999999999988
 20
104.25
 30
0.0
 40
6.4
100
AcDbArc
 50
235.4752810195455
 51
304.524682514983
  0
ARC
  5
12F36
330
DE84
100
AcDbEntity
  8
0
100
AcDbCircle
 10
17.99999999999988
 20
107.25
 30
0.0
 40
6.899999
100
AcDbArc
 50
238.4398000000013
 51
301.5601999999987
  0
ARC
  5
12F37
330
DE84
100
AcDbEntity
  8
0
100
AcDbCircle
 10
18.49999999999988
 20
104.25
 30
0.0
 40
6.4
100
AcDbArc
 50
55.47531748501702
 51
124.5246825149829
  0
LINE
  5
12F38
330
DE84
100
AcDbEntity
  8
0
100
AcDbLine
 10
10.5
 20
110.75
 30
0.0
 11
25.10000000000002
 21
110.75
 31
0.0
  0
LINE
  5
12F39
330
DE84
100
AcDbEntity
  8
0
100
AcDbLine
 10
10.5
 20
84.25
 30
0.0
 11
25.10000000000002
 21
84.25
 31
0.0
  0
LINE
  5
12F3A
330
DE84
100
AcDbEntity
  8
0
100
AcDbLine
 10
10.5
 20
83.75
 30
0.0
 11
25.10000000000002
 21
83.75
 31
0.0
  0
LINE
  5
12F3B
330
DE84
100
AcDbEntity
  8
0
100
AcDbLine
 10
10.5
 20
97.25000000000001
 30
0.0
 11
25.10000000000002
 21
97.25000000000001
 31
0.0
  0
LINE
  5
12F3C
330
DE84
100
AcDbEntity
  8
0
100
AcDbLine
 10
10.5
 20
97.75
 30
0.0
 11
25.10000000000002
 21
97.75
 31
0.0
  0
LINE
  5
12F3D
330
DE84
100
AcDbEntity
  8
0
100
AcDbLine
 10
10.5
 20
70.75
 30
0.0
 11
25.10000000000002
 21
70.75
 31
0.0
  0
ARC
  5
12F41
330
DE84
100
AcDbEntity
  8
0
100
AcDbCircle
 10
15.38302999999996
 20
89.48955000000024
 30
0.0
 40
1.9
100
AcDbArc
 50
145.0000000000211
 51
238.4398000000013
  0
ARC
  5
12F42
330
DE84
100
AcDbEntity
  8
0
100
AcDbCircle
 10
18.49999999999988
 20
90.75000000000001
 30
0.0
 40
6.4
100
AcDbArc
 50
145.4753174849993
 51
214.5245989381181
  0
ARC
  5
12F43
330
DE84
100
AcDbEntity
  8
0
100
AcDbCircle
 10
16.1770899999999
 20
88.45499000000017
 30
0.0
 40
0.3999992
100
AcDbArc
 50
164.6064000000118
 51
337.4001000000156
  0
LINE
  5
12F44
330
DE84
100
AcDbEntity
  8
0
100
AcDbLine
 10
10.0
 20
96.75
 30
0.0
 11
10.0
 21
84.74999999999999
 31
0.0
  0
ARC
  5
12F45
330
DE84
100
AcDbEntity
  8
0
100
AcDbCircle
 10
21.0
 20
90.75000000000001
 30
0.0
 40
12.0
100
AcDbArc
 50
156.4435356908833
 51
203.5564643091167
  0
ARC
  5
12F46
330
DE84
100
AcDbEntity
  8
0
100
AcDbCircle
 10
15.65677999999991
 20
75.34898000000021
 30
0.0
 40
1.899999
100
AcDbArc
 50
145.0000000000211
 51
240.099599999981
  0
ARC
  5
12F47
330
DE84
100
AcDbEntity
  8
0
100
AcDbCircle
 10
18.49999999999988
 20
77.25
 30
0.0
 40
6.4
100
AcDbArc
 50
145.4753174849993
 51
214.5245989381181
  0
LINE
  5
12F48
330
DE84
100
AcDbEntity
  8
0
100
AcDbLine
 10
15.26170999999988
 20
74.30131000000006
 30
0.0
 11
17.10030999999992
 21
78.24477000000001
 31
0.0
  0
LINE
  5
12F49
330
DE84
100
AcDbEntity
  8
0
100
AcDbLine
 10
16.82391999999993
 20
78.56465000000003
 30
0.0
 11
15.16116999999997
 21
74.32046000000013
 31
0.0
  0
LINE
  5
12F4A
330
DE84
100
AcDbEntity
  8
0
100
AcDbLine
 10
18.06681999999989
 20
77.98514999999998
 30
0.0
 11
15.8848099999999
 21
73.98307000000023
 31
0.0
  0
LINE
  5
12F4B
330
DE84
100
AcDbEntity
  8
0
100
AcDbLine
 10
15.80552
 20
74.04777000000013
 30
0.0
 11
17.64412000000004
 21
77.99122000000011
 31
0.0
  0
LINE
  5
12F4C
330
DE84
100
AcDbEntity
  8
0
100
AcDbLine
 10
6.649999999999977
 20
79.15000000000009
 30
0.0
 11
6.649999999999977
 21
75.35000000000014
 31
0.0
  0
LINE
  5
12F4E
330
DE84
100
AcDbEntity
  8
0
100
AcDbLine
 10
10.0
 20
83.25000000000001
 30
0.0
 11
10.0
 21
71.25
 31
0.0
  0
ARC
  5
12F4F
330
DE84
100
AcDbEntity
  8
0
100
AcDbCircle
 10
21.0
 20
77.25
 30
0.0
 40
12.0
100
AcDbArc
 50
156.4435356908833
 51
203.5564643091167
  0
ARC
  5
12F51
330
DE84
100
AcDbEntity
  8
0
100
AcDbCircle
 10
15.53360999999995
 20
74.17455000000018
 30
0.0
 40
0.3999992
100
AcDbArc
 50
158.606400000032
 51
331.4002000000199
  0
CIRCLE
  5
12F52
330
DE84
100
AcDbEntity
  8
0
100
AcDbCircle
 10
13.72703172698755
 20
72.47703172698766
 30
0.0
 40
0.525
  0
CIRCLE
  5
12F53
330
DE84
100
AcDbEntity
  8
0
100
AcDbCircle
 10
13.7270299999999
 20
72.47703999999998
 30
0.0
 40
1.25
  0
CIRCLE
  5
12F54
330
DE84
100
AcDbEntity
  8
0
100
AcDbCircle
 10
13.7270299999999
 20
72.47703999999998
 30
0.0
 40
0.9
  0
ARC
  5
12F56
330
DE84
100
AcDbEntity
  8
0
100
AcDbCircle
 10
15.53360999999995
 20
74.17455000000018
 30
0.0
 40
0.3
100
AcDbArc
 50
155.0033000000083
 51
335.0033000000083
  0
ARC
  5
12F57
330
DE84
100
AcDbEntity
  8
0
100
AcDbCircle
 10
17.89999999999998
 20
79.25
 30
0.0
 40
6.4
100
AcDbArc
 50
240.099599999981
 51
299.9003000000111
  0
LWPOLYLINE
  5
12F58
330
DE84
100
AcDbEntity
  8
0
100
AcDbPolyline
 90
        5
 70
     0
 43
0.0
 10
15.94999999999993
 20
74.10263663590012
 10
15.94999999999993
 20
73.95000000000004
 10
19.85000000000002
 20
73.95000000000004
 10
19.85000000000002
 20
75.55000000000018
 10
16.73912998593221
 20
75.55000000000018
  0
ARC
  5
12F59
330
DE84
100
AcDbEntity
  8
0
100
AcDbCircle
 10
10.5
 20
71.25
 30
0.0
 40
0.5
100
AcDbArc
 50
180.0
 51
270.0
  0
LINE
  5
12F5A
330
DE84
100
AcDbEntity
  8
0
100
AcDbLine
 10
6.649999999999977
 20
75.35000000000014
 30
0.0
 11
9.151371387371455
 21
75.35000000000014
 31
0.0
  0
ARC
  5
12F5B
330
DE84
100
AcDbEntity
  8
0
100
AcDbCircle
 10
18.59359999999992
 20
77.69794000000001
 30
0.0
 40
0.6000000000000001
100
AcDbArc
 50
114.0796000000324
 51
151.4000000000175
  0
ARC
  5
12F5C
330
DE84
100
AcDbEntity
  8
0
100
AcDbCircle
 10
18.27854999999988
 20
77.69542999999998
 30
0.0
 40
0.7000000000000001
100
AcDbArc
 50
103.6856000000049
 51
155.0030999999954
  0
ARC
  5
12F5D
330
DE84
100
AcDbEntity
  8
0
100
AcDbCircle
 10
17.89999999999998
 20
79.25
 30
0.0
 40
0.9
100
AcDbArc
 50
196.1275999999859
 51
206.3206000000067
  0
ARC
  5
12F5E
330
DE84
100
AcDbEntity
  8
0
100
AcDbCircle
 10
17.89999999999998
 20
79.25
 30
0.0
 40
1.1
100
AcDbArc
 50
193.1365000000455
 51
195.9265999999735
  0
ARC
  5
12F5F
330
DE84
100
AcDbEntity
  8
0
100
AcDbCircle
 10
16.2652599999999
 20
78.78350000000001
 30
0.0
 40
0.6000000000000001
100
AcDbArc
 50
338.6063000000295
 51
15.92661000004594
  0
ARC
  5
12F60
330
DE84
100
AcDbEntity
  8
0
100
AcDbCircle
 10
16.46587999999997
 20
78.54057000000011
 30
0.0
 40
0.7000000000000001
100
AcDbArc
 50
335.0030999999954
 51
26.3205899999604
  0
ARC
  5
12F61
330
DE84
100
AcDbEntity
  8
0
100
AcDbCircle
 10
17.89999999999998
 20
79.25
 30
0.0
 40
0.9
100
AcDbArc
 50
283.6854999999702
 51
343.8724000000141
  0
ARC
  5
12F62
330
DE84
100
AcDbEntity
  8
0
100
AcDbCircle
 10
17.89999999999998
 20
79.25
 30
0.0
 40
1.1
100
AcDbArc
 50
294.0794999999941
 51
346.8634000000401
  0
CIRCLE
  5
12F63
330
DE84
100
AcDbEntity
  8
0
100
AcDbCircle
 10
13.72703422698441
 20
82.0229757730017
 30
0.0
 40
0.525
  0
CIRCLE
  5
12F64
330
DE84
100
AcDbEntity
  8
0
100
AcDbCircle
 10
13.7270299999999
 20
82.02296999999999
 30
0.0
 40
1.25
  0
CIRCLE
  5
12F65
330
DE84
100
AcDbEntity
  8
0
100
AcDbCircle
 10
13.7270299999999
 20
82.02296999999999
 30
0.0
 40
0.9
  0
LWPOLYLINE
  5
12F68
330
DE84
100
AcDbEntity
  8
0
100
AcDbPolyline
 90
        4
 70
     1
 43
0.0
 10
16.89999999999997
 20
81.50000000000023
 10
20.10000000000002
 20
81.50000000000023
 10
20.10000000000002
 20
83.00000000000023
 10
16.89999999999997
 20
83.00000000000023
  0
LWPOLYLINE
  5
12F69
330
DE84
100
AcDbEntity
  8
0
100
AcDbPolyline
 90
        8
 70
     1
 43
0.0
 10
15.24999999999988
 20
79.00000000000023
 10
19.85000000000002
 20
79.00000000000023
 42
0.4142135623730951
 10
20.04999999999995
 20
79.20000000000005
 10
20.04999999999995
 20
81.30000000000018
 42
0.4142135623730895
 10
19.85000000000002
 20
81.50000000000023
 10
15.24999999999988
 20
81.50000000000023
 42
0.4142135623730951
 10
15.04999999999995
 20
81.30000000000018
 10
15.04999999999984
 20
79.20000000000005
 42
0.4142135623730951
  0
LINE
  5
12F6A
330
DE84
100
AcDbEntity
  8
0
100
AcDbLine
 10
14.10038999999995
 20
76.43878000000018
 30
0.0
 11
15.89377999999999
 21
79.0
 31
0.0
  0
CIRCLE
  5
12F6B
330
DE84
100
AcDbEntity
  8
0
100
AcDbCircle
 10
13.7270299999999
 20
85.97704000000021
 30
0.0
 40
0.9
  0
CIRCLE
  5
12F6C
330
DE84
100
AcDbEntity
  8
0
100
AcDbCircle
 10
13.72703172698755
 20
85.97703172698766
 30
0.0
 40
0.525
  0
CIRCLE
  5
12F6F
330
DE84
100
AcDbEntity
  8
0
100
AcDbCircle
 10
13.7270299999999
 20
85.97704000000021
 30
0.0
 40
1.25
  0
ARC
  5
12F70
330
DE84
100
AcDbEntity
  8
0
100
AcDbCircle
 10
10.5
 20
84.74999999999999
 30
0.0
 40
0.5
100
AcDbArc
 50
180.0
 51
270.0
  0
ARC
  5
12F71
330
DE84
100
AcDbEntity
  8
0
100
AcDbCircle
 10
10.5
 20
83.25000000000001
 30
0.0
 40
0.5
100
AcDbArc
 50
90.0
 51
180.0
  0
CIRCLE
  5
12F72
330
DE84
100
AcDbEntity
  8
0
100
AcDbCircle
 10
7.850000000000022
 20
77.25
 30
0.0
 40
0.525
  0
LINE
  5
12F73
330
DE84
100
AcDbEntity
  8
0
100
AcDbLine
 10
6.649999999999977
 20
79.15000000000009
 30
0.0
 11
9.151371387371455
 21
79.15000000000009
 31
0.0
  0
LINE
  5
12F74
330
DE84
100
AcDbEntity
  8
0
100
AcDbLine
 10
9.75
 20
86.57417672787756
 30
0.0
 11
9.75
 21
81.42582327212267
 31
0.0
  0
CIRCLE
  5
12F75
330
DE84
100
AcDbEntity
  8
0
100
AcDbCircle
 10
13.7270299999999
 20
99.47704000000022
 30
0.0
 40
0.9
  0
CIRCLE
  5
12F76
330
DE84
100
AcDbEntity
  8
0
100
AcDbCircle
 10
13.72703172698755
 20
99.47703172698766
 30
0.0
 40
0.525
  0
CIRCLE
  5
12F79
330
DE84
100
AcDbEntity
  8
0
100
AcDbCircle
 10
13.7270299999999
 20
99.47704000000022
 30
0.0
 40
1.25
  0
LINE
  5
12F7A
330
DE84
100
AcDbEntity
  8
0
100
AcDbLine
 10
9.75
 20
100.0741767278775
 30
0.0
 11
9.75
 21
94.92582327212266
 31
0.0
  0
LINE
  5
12F7B
330
DE84
100
AcDbEntity
  8
0
100
AcDbLine
 10
10.0
 20
110.25
 30
0.0
 11
10.0
 21
98.25000000000001
 31
0.0
  0
ARC
  5
12F7C
330
DE84
100
AcDbEntity
  8
0
100
AcDbCircle
 10
21.0
 20
104.25
 30
0.0
 40
12.0
100
AcDbArc
 50
156.4435356908833
 51
203.5564643091167
  0
LINE
  5
12F7D
330
DE84
100
AcDbEntity
  8
0
100
AcDbLine
 10
18.29810999999995
 20
92.50952000000006
 30
0.0
 11
16.54637999999988
 21
88.30128000000014
 31
0.0
  0
LINE
  5
12F7E
330
DE84
100
AcDbEntity
  8
0
100
AcDbLine
 10
16.46076000000005
 20
88.35734000000002
 30
0.0
 11
17.87709999999993
 21
92.47137000000021
 31
0.0
  0
LINE
  5
12F7F
330
DE84
100
AcDbEntity
  8
0
100
AcDbLine
 10
17.00144999999998
 20
92.95593000000009
 30
0.0
 11
15.79144999999994
 21
88.56118000000014
 31
0.0
  0
LINE
  5
12F80
330
DE84
100
AcDbEntity
  8
0
100
AcDbLine
 10
15.89343999999994
 20
88.55265000000008
 30
0.0
 11
17.30975999999998
 21
92.66669000000002
 31
0.0
  0
ARC
  5
12F81
330
DE84
100
AcDbEntity
  8
0
100
AcDbCircle
 10
16.1770899999999
 20
88.45499000000017
 30
0.0
 40
0.3
100
AcDbArc
 50
161.0032999999807
 51
341.0032999999808
  0
ARC
  5
12F82
330
DE84
100
AcDbEntity
  8
0
100
AcDbCircle
 10
17.99999999999988
 20
93.75
 30
0.0
 40
1.1
100
AcDbArc
 50
300.0796000000176
 51
346.8633999999863
  0
ARC
  5
12F83
330
DE84
100
AcDbEntity
  8
0
100
AcDbCircle
 10
17.99999999999988
 20
93.75
 30
0.0
 40
0.9
100
AcDbArc
 50
289.6857000000052
 51
343.8724000000141
  0
ARC
  5
12F84
330
DE84
100
AcDbEntity
  8
0
100
AcDbCircle
 10
16.64788999999996
 20
92.89454999999998
 30
0.0
 40
0.7000000000000001
100
AcDbArc
 50
341.0031999999744
 51
32.32059000002235
  0
ARC
  5
12F85
330
DE84
100
AcDbEntity
  8
0
100
AcDbCircle
 10
16.42297999999994
 20
93.11518999999998
 30
0.0
 40
0.6000000000000001
100
AcDbArc
 50
344.6062999999583
 51
21.92661000002215
  0
ARC
  5
12F86
330
DE84
100
AcDbEntity
  8
0
100
AcDbCircle
 10
17.99999999999988
 20
93.75
 30
0.0
 40
1.1
100
AcDbArc
 50
193.1369000000023
 51
201.9265999999987
  0
ARC
  5
12F87
330
DE84
100
AcDbEntity
  8
0
100
AcDbCircle
 10
17.99999999999988
 20
93.75
 30
0.0
 40
0.9
100
AcDbArc
 50
196.1279999999981
 51
212.3205999999899
  0
ARC
  5
12F88
330
DE84
100
AcDbEntity
  8
0
100
AcDbCircle
 10
18.85203999999987
 20
92.27894000000015
 30
0.0
 40
0.6000000000000001
100
AcDbArc
 50
120.0796000000176
 51
157.400000000022
  0
ARC
  5
12F89
330
DE84
100
AcDbEntity
  8
0
100
AcDbCircle
 10
18.53896999999995
 20
92.24351999999999
 30
0.0
 40
0.7000000000000001
100
AcDbArc
 50
109.6855999999881
 51
161.0031000000165
  0
LINE
  5
12F8A
330
DE84
100
AcDbEntity
  8
0
100
AcDbLine
 10
13.82663999999988
 20
90.57934000000022
 30
0.0
 11
15.87171
 21
93.49999999999999
 31
0.0
  0
LWPOLYLINE
  5
12F8B
330
DE84
100
AcDbEntity
  8
0
100
AcDbPolyline
 90
        3
 70
     0
 43
0.0
 10
16.04999999999995
 20
89.5002400103308
 10
16.04999999999995
 20
90.05000000000018
 10
16.20136460265087
 20
90.05000000000018
  0
CIRCLE
  5
12F8C
330
DE84
100
AcDbEntity
  8
0
100
AcDbCircle
 10
13.7270299999999
 20
95.52296999999999
 30
0.0
 40
0.9
  0
CIRCLE
  5
12F8D
330
DE84
100
AcDbEntity
  8
0
100
AcDbCircle
 10
13.72703172698755
 20
95.52297327300493
 30
0.0
 40
0.525
  0
CIRCLE
  5
12F90
330
DE84
100
AcDbEntity
  8
0
100
AcDbCircle
 10
13.7270299999999
 20
95.52296999999999
 30
0.0
 40
1.25
  0
LWPOLYLINE
  5
12F91
330
DE84
100
AcDbEntity
  8
0
100
AcDbPolyline
 90
        8
 70
     1
 43
0.0
 10
15.69999999999993
 20
93.50000000000022
 10
20.30000000000007
 20
93.50000000000022
 42
0.4142135623730951
 10
20.5
 20
93.70000000000004
 10
20.5
 20
95.80000000000017
 42
0.4142135623730895
 10
20.30000000000007
 20
96.00000000000022
 10
15.69999999999993
 20
96.00000000000022
 42
0.4142135623730951
 10
15.5
 20
95.80000000000017
 10
15.5
 20
93.70000000000004
 42
0.4142135623730951
  0
LWPOLYLINE
  5
12F92
330
DE84
100
AcDbEntity
  8
0
100
AcDbPolyline
 90
        4
 70
     0
 43
0.0
 10
17.27430551888676
 20
90.05000000000018
 10
19.94999999999993
 20
90.05000000000018
 10
19.94999999999993
 20
88.45000000000004
 10
16.60828647054347
 20
88.45000000000004
  0
ARC
  5
12F93
330
DE84
100
AcDbEntity
  8
0
100
AcDbCircle
 10
10.5
 20
98.25000000000001
 30
0.0
 40
0.5
100
AcDbArc
 50
180.0
 51
270.0
  0
ARC
  5
12F94
330
DE84
100
AcDbEntity
  8
0
100
AcDbCircle
 10
10.5
 20
96.75
 30
0.0
 40
0.5
100
AcDbArc
 50
90.0
 51
180.0
  0
CIRCLE
  5
12F95
330
DE84
100
AcDbEntity
  8
0
100
AcDbCircle
 10
7.850000000000022
 20
90.75000000000001
 30
0.0
 40
0.525
  0
LINE
  5
12F97
330
DE84
100
AcDbEntity
  8
0
100
AcDbLine
 10
6.649999999999977
 20
92.65000000000009
 30
0.0
 11
6.649999999999977
 21
88.85000000000013
 31
0.0
  0
LINE
  5
12F98
330
DE84
100
AcDbEntity
  8
0
100
AcDbLine
 10
6.649999999999977
 20
92.65000000000009
 30
0.0
 11
9.151371387371455
 21
92.65000000000009
 31
0.0
  0
LINE
  5
12F99
330
DE84
100
AcDbEntity
  8
0
100
AcDbLine
 10
6.649999999999977
 20
88.85000000000013
 30
0.0
 11
9.151371387371455
 21
88.85000000000013
 31
0.0
  0
LINE
  5
12F9A
330
DE84
100
AcDbEntity
  8
0
100
AcDbLine
 10
18.29810999999995
 20
106.00952
 30
0.0
 11
16.54637999999988
 21
101.8012800000001
 31
0.0
  0
LINE
  5
12F9B
330
DE84
100
AcDbEntity
  8
0
100
AcDbLine
 10
16.46076000000005
 20
101.85734
 30
0.0
 11
17.87709999999993
 21
105.9713700000002
 31
0.0
  0
ARC
  5
12F9C
330
DE84
100
AcDbEntity
  8
0
100
AcDbCircle
 10
15.38302999999996
 20
102.9895500000002
 30
0.0
 40
1.9
100
AcDbArc
 50
145.0000000000211
 51
238.4398000000013
  0
LINE
  5
12F9D
330
DE84
100
AcDbEntity
  8
0
100
AcDbLine
 10
17.00144999999998
 20
106.4559300000001
 30
0.0
 11
15.79144999999994
 21
102.0611800000001
 31
0.0
  0
LINE
  5
12F9E
330
DE84
100
AcDbEntity
  8
0
100
AcDbLine
 10
15.89343999999994
 20
102.0526500000001
 30
0.0
 11
17.30975999999998
 21
106.16669
 31
0.0
  0
ARC
  5
12F9F
330
DE84
100
AcDbEntity
  8
0
100
AcDbCircle
 10
18.49999999999988
 20
104.25
 30
0.0
 40
6.4
100
AcDbArc
 50
145.4753174849993
 51
214.5245989381181
  0
ARC
  5
12FA0
330
DE84
100
AcDbEntity
  8
0
100
AcDbCircle
 10
16.1770899999999
 20
101.9549900000002
 30
0.0
 40
0.3999992
100
AcDbArc
 50
164.6064000000118
 51
337.4001000000156
  0
ARC
  5
12FA1
330
DE84
100
AcDbEntity
  8
0
100
AcDbCircle
 10
16.1770899999999
 20
101.9549900000002
 30
0.0
 40
0.3
100
AcDbArc
 50
161.0032999999807
 51
341.0032999999808
  0
ARC
  5
12FA2
330
DE84
100
AcDbEntity
  8
0
100
AcDbCircle
 10
17.99999999999988
 20
107.25
 30
0.0
 40
1.1
100
AcDbArc
 50
300.0796000000176
 51
346.8633999999863
  0
ARC
  5
12FA3
330
DE84
100
AcDbEntity
  8
0
100
AcDbCircle
 10
17.99999999999988
 20
107.25
 30
0.0
 40
0.9
100
AcDbArc
 50
289.6857000000052
 51
343.8724000000141
  0
ARC
  5
12FA4
330
DE84
100
AcDbEntity
  8
0
100
AcDbCircle
 10
16.64788999999996
 20
106.3945499999999
 30
0.0
 40
0.7000000000000001
100
AcDbArc
 50
341.0031999999744
 51
32.32059000002235
  0
ARC
  5
12FA5
330
DE84
100
AcDbEntity
  8
0
100
AcDbCircle
 10
16.42297999999994
 20
106.61519
 30
0.0
 40
0.6000000000000001
100
AcDbArc
 50
344.6062999999583
 51
21.92661000002215
  0
ARC
  5
12FA6
330
DE84
100
AcDbEntity
  8
0
100
AcDbCircle
 10
17.99999999999988
 20
107.25
 30
0.0
 40
1.1
100
AcDbArc
 50
193.1369000000023
 51
201.9265999999987
  0
ARC
  5
12FA7
330
DE84
100
AcDbEntity
  8
0
100
AcDbCircle
 10
17.99999999999988
 20
107.25
 30
0.0
 40
0.9
100
AcDbArc
 50
196.1279999999981
 51
212.3205999999899
  0
ARC
  5
12FA8
330
DE84
100
AcDbEntity
  8
0
100
AcDbCircle
 10
18.85203999999987
 20
105.7789400000001
 30
0.0
 40
0.6000000000000001
100
AcDbArc
 50
120.0796000000176
 51
157.400000000022
  0
ARC
  5
12FA9
330
DE84
100
AcDbEntity
  8
0
100
AcDbCircle
 10
18.53896999999995
 20
105.74352
 30
0.0
 40
0.7000000000000001
100
AcDbArc
 50
109.6855999999881
 51
161.0031000000165
  0
LINE
  5
12FAA
330
DE84
100
AcDbEntity
  8
0
100
AcDbLine
 10
13.82663999999988
 20
104.0793400000002
 30
0.0
 11
15.87171
 21
107.0
 31
0.0
  0
LWPOLYLINE
  5
12FAB
330
DE84
100
AcDbEntity
  8
0
100
AcDbPolyline
 90
        3
 70
     0
 43
0.0
 10
16.04999999999995
 20
103.0002400103308
 10
16.04999999999995
 20
103.5500000000002
 10
16.20136460265087
 20
103.5500000000002
  0
CIRCLE
  5
12FAC
330
DE84
100
AcDbEntity
  8
0
100
AcDbCircle
 10
13.7270299999999
 20
109.02297
 30
0.0
 40
0.9
  0
CIRCLE
  5
12FAD
330
DE84
100
AcDbEntity
  8
0
100
AcDbCircle
 10
13.72703172698755
 20
109.0229732730049
 30
0.0
 40
0.525
  0
CIRCLE
  5
12FB0
330
DE84
100
AcDbEntity
  8
0
100
AcDbCircle
 10
13.7270299999999
 20
109.02297
 30
0.0
 40
1.25
  0
LWPOLYLINE
  5
12FB1
330
DE84
100
AcDbEntity
  8
0
100
AcDbPolyline
 90
        8
 70
     1
 43
0.0
 10
15.69999999999993
 20
107.0000000000002
 10
20.30000000000007
 20
107.0000000000002
 42
0.4142135623730951
 10
20.5
 20
107.2
 10
20.5
 20
109.3000000000001
 42
0.4142135623730895
 10
20.30000000000007
 20
109.5000000000002
 10
15.69999999999993
 20
109.5000000000002
 42
0.4142135623730951
 10
15.5
 20
109.3000000000001
 10
15.5
 20
107.2
 42
0.4142135623730951
  0
LWPOLYLINE
  5
12FB2
330
DE84
100
AcDbEntity
  8
0
100
AcDbPolyline
 90
        4
 70
     0
 43
0.0
 10
17.27430551888676
 20
103.5500000000002
 10
19.94999999999993
 20
103.5500000000002
 10
19.94999999999993
 20
101.95
 10
16.60828647054347
 20
101.95
  0
ARC
  5
12FB3
330
DE84
100
AcDbEntity
  8
0
100
AcDbCircle
 10
10.5
 20
110.25
 30
0.0
 40
0.5
100
AcDbArc
 50
90.0
 51
180.0
  0
LINE
  5
12FB4
330
DE84
100
AcDbEntity
  8
0
100
AcDbLine
 10
6.649999999999977
 20
106.1500000000001
 30
0.0
 11
9.151371387371455
 21
106.1500000000001
 31
0.0
  0
LINE
  5
12FB5
330
DE84
100
AcDbEntity
  8
0
100
AcDbLine
 10
6.649999999999977
 20
102.3500000000001
 30
0.0
 11
9.151371387371455
 21
102.3500000000001
 31
0.0
  0
CIRCLE
  5
12FB6
330
DE84
100
AcDbEntity
  8
0
100
AcDbCircle
 10
7.850000000000022
 20
104.25
 30
0.0
 40
0.525
  0
LINE
  5
12FB8
330
DE84
100
AcDbEntity
  8
0
100
AcDbLine
 10
6.649999999999977
 20
106.1500000000001
 30
0.0
 11
6.649999999999977
 21
102.3500000000001
 31
0.0
  0
ARC
  5
12FB9
330
DE84
100
AcDbEntity
  8
0
100
AcDbCircle
 10
63.61696999999992
 20
89.48954000000004
 30
0.0
 40
1.9
100
AcDbArc
 50
301.5601999999987
 51
34.99999999997888
  0
ARC
  5
12FBA
330
DE84
100
AcDbEntity
  8
0
100
AcDbCircle
 10
61.49999999999988
 20
90.75000000000001
 30
0.0
 40
6.4
100
AcDbArc
 50
325.4753174849993
 51
34.52468251500071
  0
ARC
  5
12FBB
330
DE84
100
AcDbEntity
  8
0
100
AcDbCircle
 10
58.38302999999996
 20
89.48955000000024
 30
0.0
 40
1.9
100
AcDbArc
 50
145.0000000000211
 51
238.4398000000013
  0
ARC
  5
12FBC
330
DE84
100
AcDbEntity
  8
0
100
AcDbCircle
 10
61.49999999999988
 20
90.75000000000001
 30
0.0
 40
6.4
100
AcDbArc
 50
145.4753174849993
 51
214.5245989381181
  0
ARC
  5
12FBD
330
DE84
100
AcDbEntity
  8
0
100
AcDbCircle
 10
59.17708999999991
 20
88.45499000000017
 30
0.0
 40
0.3999992
100
AcDbArc
 50
164.6064000000118
 51
337.4001000000156
  0
ARC
  5
12FBE
330
DE84
100
AcDbEntity
  8
0
100
AcDbCircle
 10
20.61696999999993
 20
89.48954000000004
 30
0.0
 40
1.9
100
AcDbArc
 50
301.5601999999987
 51
34.99999999997888
  0
ARC
  5
12FBF
330
DE84
100
AcDbEntity
  8
0
100
AcDbCircle
 10
18.49999999999988
 20
90.75000000000001
 30
0.0
 40
6.4
100
AcDbArc
 50
325.4753174849993
 51
34.52468251500071
  0
ARC
  5
12FC0
330
DE84
100
AcDbEntity
  8
0
100
AcDbCircle
 10
49.29999999999996
 20
87.70000000000004
 30
0.0
 40
0.3
100
AcDbArc
 50
90.0
 51
180.0
  0
LINE
  5
12FC1
330
DE84
100
AcDbEntity
  8
0
100
AcDbLine
 10
51.89999999999997
 20
94.25
 30
0.0
 11
51.89999999999997
 21
87.24999999999999
 31
0.0
  0
LINE
  5
12FC2
330
DE84
100
AcDbEntity
  8
0
100
AcDbLine
 10
50.0
 20
93.65000000000009
 30
0.0
 11
50.0
 21
87.85000000000014
 31
0.0
  0
ARC
  5
12FC3
330
DE84
100
AcDbEntity
  8
0
100
AcDbCircle
 10
59.0
 20
90.75000000000001
 30
0.0
 40
12.0
100
AcDbArc
 50
336.4435356908832
 51
23.5564643091167
  0
LINE
  5
12FC4
330
DE84
100
AcDbEntity
  8
0
100
AcDbLine
 10
70.0
 20
96.75
 30
0.0
 11
70.0
 21
84.74999999999999
 31
0.0
  0
ARC
  5
12FC5
330
DE84
100
AcDbEntity
  8
0
100
AcDbCircle
 10
33.79666218387376
 20
87.72864269921319
 30
0.0
 40
1.0
100
AcDbArc
 50
315.0
 51
25.96855907488479
  0
ARC
  5
12FC6
330
DE84
100
AcDbEntity
  8
0
100
AcDbCircle
 10
46.20333781612623
 20
87.72864269921319
 30
0.0
 40
1.0
100
AcDbArc
 50
154.0314409251152
 51
225.0
  0
ARC
  5
12FC7
330
DE84
100
AcDbEntity
  8
0
100
AcDbCircle
 10
30.69999999999993
 20
87.70000000000004
 30
0.0
 40
0.3
100
AcDbArc
 50
0.0
 51
90.0
  0
LINE
  5
12FC8
330
DE84
100
AcDbEntity
  8
0
100
AcDbLine
 10
28.10000000000002
 20
94.25
 30
0.0
 11
28.10000000000002
 21
87.24999999999999
 31
0.0
  0
ARC
  5
12FC9
330
DE84
100
AcDbEntity
  8
0
100
AcDbCircle
 10
40.0
 20
90.75000000000001
 30
0.0
 40
6.75
100
AcDbArc
 50
330.1736275039399
 51
29.82637249606012
  0
CIRCLE
  5
12FCA
330
DE84
100
AcDbEntity
  8
0
100
AcDbCircle
 10
40.0
 20
90.75000000000001
 30
0.0
 40
4.75
  0
ARC
  5
12FCB
330
DE84
100
AcDbEntity
  8
0
100
AcDbCircle
 10
40.0
 20
90.75000000000001
 30
0.0
 40
6.75
100
AcDbArc
 50
150.1736275039398
 51
209.8263724960601
  0
LINE
  5
12FCC
330
DE84
100
AcDbEntity
  8
0
100
AcDbLine
 10
30.0
 20
93.65000000000009
 30
0.0
 11
30.0
 21
87.85000000000014
 31
0.0
  0
ARC
  5
12FCD
330
DE84
100
AcDbEntity
  8
0
100
AcDbCircle
 10
54.89999999999998
 20
87.24999999999999
 30
0.0
 40
3.0
100
AcDbArc
 50
180.0
 51
270.0
  0
ARC
  5
12FCE
330
DE84
100
AcDbEntity
  8
0
100
AcDbCircle
 10
54.89999999999998
 20
73.75
 30
0.0
 40
3.0
100
AcDbArc
 50
180.0
 51
270.0
  0
ARC
  5
12FCF
330
DE84
100
AcDbEntity
  8
0
100
AcDbCircle
 10
54.89999999999998
 20
80.75000000000001
 30
0.0
 40
3.0
100
AcDbArc
 50
90.0
 51
180.0
  0
ARC
  5
12FD0
330
DE84
100
AcDbEntity
  8
0
100
AcDbCircle
 10
18.49999999999988
 20
77.25
 30
0.0
 40
6.4
100
AcDbArc
 50
325.4753174849993
 51
34.5246861567362
  0
ARC
  5
12FD1
330
DE84
100
AcDbEntity
  8
0
100
AcDbCircle
 10
59.77294993917701
 20
77.25
 30
0.0
 40
11.11840592854991
100
AcDbArc
 50
183.0120936226022
 51
194.3200216772953
  0
LINE
  5
12FD2
330
DE84
100
AcDbEntity
  8
0
100
AcDbLine
 10
51.89999999999997
 20
80.75000000000001
 30
0.0
 11
51.89999999999997
 21
73.75
 31
0.0
  0
LINE
  5
12FD3
330
DE84
100
AcDbEntity
  8
0
100
AcDbLine
 10
50.0
 20
80.15000000000009
 30
0.0
 11
50.0
 21
74.35000000000013
 31
0.0
  0
LINE
  5
12FD4
330
DE84
100
AcDbEntity
  8
0
100
AcDbLine
 10
50.0
 20
80.0
 30
0.0
 11
50.0
 21
74.5
 31
0.0
  0
ARC
  5
12FD5
330
DE84
100
AcDbEntity
  8
0
100
AcDbCircle
 10
40.0
 20
77.25
 30
0.0
 40
6.75
100
AcDbArc
 50
330.1736275039399
 51
29.82637249606012
  0
ARC
  5
12FD6
330
DE84
100
AcDbEntity
  8
0
100
AcDbCircle
 10
40.0
 20
77.25
 30
0.0
 40
5.9
100
AcDbArc
 50
154.0314409251152
 51
205.9685590748848
  0
ARC
  5
12FD7
330
DE84
100
AcDbEntity
  8
0
100
AcDbCircle
 10
40.0
 20
77.25
 30
0.0
 40
6.75
100
AcDbArc
 50
150.1736275039398
 51
209.8263724960601
  0
ARC
  5
12FD8
330
DE84
100
AcDbEntity
  8
0
100
AcDbCircle
 10
40.0
 20
77.25
 30
0.0
 40
5.9
100
AcDbArc
 50
334.0314409251152
 51
25.96855907488479
  0
LINE
  5
12FD9
330
DE84
100
AcDbEntity
  8
0
100
AcDbLine
 10
28.10000000000002
 20
80.75000000000001
 30
0.0
 11
28.10000000000002
 21
73.75
 31
0.0
  0
LINE
  5
12FDA
330
DE84
100
AcDbEntity
  8
0
100
AcDbLine
 10
30.0
 20
80.15000000000009
 30
0.0
 11
30.0
 21
74.35000000000013
 31
0.0
  0
LINE
  5
12FDB
330
DE84
100
AcDbEntity
  8
0
100
AcDbLine
 10
30.0
 20
80.0
 30
0.0
 11
30.0
 21
74.5
 31
0.0
  0
ARC
  5
12FDC
330
DE84
100
AcDbEntity
  8
0
100
AcDbCircle
 10
20.22705006082299
 20
77.25
 30
0.0
 40
11.11840592854991
100
AcDbArc
 50
345.6799783227046
 51
356.9879063773977
  0
CIRCLE
  5
12FDD
330
DE84
100
AcDbEntity
  8
0
100
AcDbCircle
 10
40.0
 20
77.25
 30
0.0
 40
4.75
  0
ARC
  5
12FDF
330
DE84
100
AcDbEntity
  8
0
100
AcDbCircle
 10
40.0
 20
77.25
 30
0.0
 40
5.9
100
AcDbArc
 50
244.0314409251154
 51
295.9685590748846
  0
ARC
  5
12FE0
330
DE84
100
AcDbEntity
  8
0
100
AcDbCircle
 10
40.0
 20
77.25
 30
0.0
 40
6.75
100
AcDbArc
 50
240.17362750394
 51
299.82637249606
  0
LINE
  5
12FE1
330
DE84
100
AcDbEntity
  8
0
100
AcDbLine
 10
31.0
 20
68.5
 30
0.0
 11
49.0
 21
68.5
 31
0.0
  0
CIRCLE
  5
12FE3
330
DE84
100
AcDbEntity
  8
0
100
AcDbCircle
 10
23.27297577299805
 20
72.47703422698123
 30
0.0
 40
0.525
  0
CIRCLE
  5
12FE4
330
DE84
100
AcDbEntity
  8
0
100
AcDbCircle
 10
23.27296999999987
 20
72.47703000000001
 30
0.0
 40
0.9
  0
CIRCLE
  5
12FE5
330
DE84
100
AcDbEntity
  8
0
100
AcDbCircle
 10
23.27296999999987
 20
72.47703000000001
 30
0.0
 40
1.25
  0
LINE
  5
12FE7
330
DE84
100
AcDbEntity
  8
0
100
AcDbLine
 10
32.5
 20
68.5
 30
0.0
 11
32.5
 21
66.66239246354962
 31
0.0
  0
LINE
  5
12FE8
330
DE84
100
AcDbEntity
  8
0
100
AcDbLine
 10
37.56288658861933
 20
66.48194867693928
 30
0.0
 11
37.17079380557243
 21
67.94525886455153
 31
0.0
  0
LINE
  5
12FE9
330
DE84
100
AcDbEntity
  8
0
100
AcDbLine
 10
36.93503480153152
 20
66.31371629762248
 30
0.0
 11
36.52594473387865
 21
67.84046121497453
 31
0.0
  0
CIRCLE
  5
12FEA
330
DE84
100
AcDbEntity
  8
0
100
AcDbCircle
 10
35.34125718815449
 20
65.88666487320324
 30
0.0
 40
1.074999999999999
  0
LINE
  5
12FEB
330
DE84
100
AcDbEntity
  8
0
100
AcDbLine
 10
33.11962778768975
 20
65.29138106946743
 30
0.0
 11
32.72753500464262
 21
66.75469125707969
 31
0.0
  0
LINE
  5
12FEC
330
DE84
100
AcDbEntity
  8
0
100
AcDbLine
 10
33.74747957477769
 20
65.45961344878401
 30
0.0
 11
33.33838950712482
 21
66.9863583661363
 31
0.0
  0
ARC
  5
12FED
330
DE84
100
AcDbEntity
  8
0
100
AcDbCircle
 10
36.9786426992132
 20
71.04666218387388
 30
0.0
 40
1.0
100
AcDbArc
 50
64.03144092511539
 51
135.0
  0
ARC
  5
12FEE
330
DE84
100
AcDbEntity
  8
0
100
AcDbCircle
 10
36.29456869575927
 20
70.78685224913193
 30
0.0
 40
0.7000000000000001
100
AcDbArc
 50
60.17362750393998
 51
135.0
  0
LINE
  5
12FEF
330
DE84
100
AcDbEntity
  8
0
100
AcDbLine
 10
35.75735931288079
 20
71.23959235991446
 30
0.0
 11
36.27153591802664
 21
71.75376896506032
 31
0.0
  0
LINE
  5
12FF0
330
DE84
100
AcDbEntity
  8
0
100
AcDbLine
 10
33.98959235991436
 20
73.00735931288091
 30
0.0
 11
34.5037689650602
 21
73.52153591802675
 31
0.0
  0
ARC
  5
12FF1
330
DE84
100
AcDbEntity
  8
0
100
AcDbCircle
 10
33.53685224913181
 20
73.54456869575938
 30
0.0
 40
0.7000000000000001
100
AcDbArc
 50
315.0
 51
29.82637249606012
  0
ARC
  5
12FF2
330
DE84
100
AcDbEntity
  8
0
100
AcDbCircle
 10
33.79666218387376
 20
74.22864269921319
 30
0.0
 40
1.0
100
AcDbArc
 50
315.0
 51
25.96855907488479
  0
ARC
  5
12FF3
330
DE84
100
AcDbEntity
  8
0
100
AcDbCircle
 10
34.87347583639746
 20
72.12347583639758
 30
0.0
 40
1.25
100
AcDbArc
 50
135.0
 51
315.0
  0
CIRCLE
  5
12FF4
330
DE84
100
AcDbEntity
  8
0
100
AcDbCircle
 10
34.87347583639746
 20
72.12347583639758
 30
0.0
 40
0.9
  0
CIRCLE
  5
12FF5
330
DE84
100
AcDbEntity
  8
0
100
AcDbCircle
 10
34.87347583639746
 20
72.12347583639758
 30
0.0
 40
0.525
  0
LINE
  5
12FF8
330
DE84
100
AcDbEntity
  8
0
100
AcDbLine
 10
28.60000000000002
 20
74.35000000000013
 30
0.0
 11
30.0
 21
74.35000000000013
 31
0.0
  0
ARC
  5
12FF9
330
DE84
100
AcDbEntity
  8
0
100
AcDbCircle
 10
25.10000000000002
 20
73.75
 30
0.0
 40
3.0
100
AcDbArc
 50
270.0
 51
0.0
  0
ARC
  5
12FFA
330
DE84
100
AcDbEntity
  8
0
100
AcDbCircle
 10
28.60000000000002
 20
73.85000000000013
 30
0.0
 40
0.5
100
AcDbArc
 50
90.0
 51
180.0
  0
LINE
  5
12FFB
330
DE84
100
AcDbEntity
  8
0
100
AcDbLine
 10
30.0
 20
74.5
 30
0.0
 11
30.69999999999993
 21
74.5
 31
0.0
  0
ARC
  5
12FFC
330
DE84
100
AcDbEntity
  8
0
100
AcDbCircle
 10
30.69999999999993
 20
74.20000000000005
 30
0.0
 40
0.3
100
AcDbArc
 50
0.0
 51
90.0
  0
LINE
  5
12FFD
330
DE84
100
AcDbEntity
  8
0
100
AcDbLine
 10
31.0
 20
74.20000000000005
 30
0.0
 11
31.0
 21
68.5
 31
0.0
  0
LINE
  5
12FFE
330
DE84
100
AcDbEntity
  8
0
100
AcDbLine
 10
42.43711341138044
 20
66.48194867693928
 30
0.0
 11
42.82920619442745
 21
67.94525886455153
 31
0.0
  0
LINE
  5
12FFF
330
DE84
100
AcDbEntity
  8
0
100
AcDbLine
 10
43.06496519846848
 20
66.31371629762248
 30
0.0
 11
43.47405526612113
 21
67.84046121497453
 31
0.0
  0
LINE
  5
13000
330
DE84
100
AcDbEntity
  8
0
100
AcDbLine
 10
47.5
 20
68.5
 30
0.0
 11
47.5
 21
66.66239246354962
 31
0.0
  0
CIRCLE
  5
13001
330
DE84
100
AcDbEntity
  8
0
100
AcDbCircle
 10
44.65874281184528
 20
65.88666487320347
 30
0.0
 40
1.074999999999999
  0
LINE
  5
13002
330
DE84
100
AcDbEntity
  8
0
100
AcDbLine
 10
46.25252042522231
 20
65.45961344878424
 30
0.0
 11
46.66161049287518
 21
66.9863583661363
 31
0.0
  0
LINE
  5
13003
330
DE84
100
AcDbEntity
  8
0
100
AcDbLine
 10
46.88037221231013
 20
65.29138106946766
 30
0.0
 11
47.27246499535715
 21
66.75469125707991
 31
0.0
  0
ARC
  5
13005
330
DE84
100
AcDbEntity
  8
0
100
AcDbCircle
 10
49.29999999999996
 20
74.20000000000005
 30
0.0
 40
0.3
100
AcDbArc
 50
90.0
 51
180.0
  0
LINE
  5
13006
330
DE84
100
AcDbEntity
  8
0
100
AcDbLine
 10
50.0
 20
74.5
 30
0.0
 11
49.30000000000006
 21
74.5
 31
0.0
  0
LINE
  5
13007
330
DE84
100
AcDbEntity
  8
0
100
AcDbLine
 10
51.39999999999997
 20
74.35000000000013
 30
0.0
 11
50.0
 21
74.35000000000013
 31
0.0
  0
ARC
  5
13008
330
DE84
100
AcDbEntity
  8
0
100
AcDbCircle
 10
51.39999999999997
 20
73.85000000000013
 30
0.0
 40
0.5
100
AcDbArc
 50
0.0
 51
90.0
  0
LINE
  5
13009
330
DE84
100
AcDbEntity
  8
0
100
AcDbLine
 10
49.0
 20
74.20000000000005
 30
0.0
 11
49.0
 21
68.5
 31
0.0
  0
ARC
  5
1300A
330
DE84
100
AcDbEntity
  8
0
100
AcDbCircle
 10
45.12652416360253
 20
72.12347583639758
 30
0.0
 40
1.25
100
AcDbArc
 50
225.0
 51
45.0
  0
CIRCLE
  5
1300B
330
DE84
100
AcDbEntity
  8
0
100
AcDbCircle
 10
45.12652416360253
 20
72.12347583639758
 30
0.0
 40
0.9
  0
CIRCLE
  5
1300C
330
DE84
100
AcDbEntity
  8
0
100
AcDbCircle
 10
45.12652416360253
 20
72.12347583639758
 30
0.0
 40
0.525
  0
LINE
  5
1300F
330
DE84
100
AcDbEntity
  8
0
100
AcDbLine
 10
44.2426406871192
 20
71.23959235991446
 30
0.0
 11
43.72846408197335
 21
71.75376896506032
 31
0.0
  0
ARC
  5
13010
330
DE84
100
AcDbEntity
  8
0
100
AcDbCircle
 10
43.0213573007868
 20
71.04666218387388
 30
0.0
 40
1.0
100
AcDbArc
 50
45.0
 51
115.9685590748846
  0
ARC
  5
13011
330
DE84
100
AcDbEntity
  8
0
100
AcDbCircle
 10
43.70543130424062
 20
70.78685224913193
 30
0.0
 40
0.7000000000000001
100
AcDbArc
 50
45.0
 51
119.82637249606
  0
LINE
  5
13012
330
DE84
100
AcDbEntity
  8
0
100
AcDbLine
 10
46.01040764008565
 20
73.00735931288091
 30
0.0
 11
45.4962310349398
 21
73.52153591802675
 31
0.0
  0
ARC
  5
13013
330
DE84
100
AcDbEntity
  8
0
100
AcDbCircle
 10
46.46314775086819
 20
73.54456869575938
 30
0.0
 40
0.7000000000000001
100
AcDbArc
 50
150.1736275039398
 51
225.0
  0
ARC
  5
13014
330
DE84
100
AcDbEntity
  8
0
100
AcDbCircle
 10
46.20333781612623
 20
74.22864269921319
 30
0.0
 40
1.0
100
AcDbArc
 50
154.0314409251152
 51
225.0
  0
ARC
  5
13015
330
DE84
100
AcDbEntity
  8
0
100
AcDbCircle
 10
40.0
 20
77.25
 30
0.0
 40
6.75
100
AcDbArc
 50
60.17362750393998
 51
119.82637249606
  0
ARC
  5
13016
330
DE84
100
AcDbEntity
  8
0
100
AcDbCircle
 10
40.0
 20
77.25
 30
0.0
 40
5.9
100
AcDbArc
 50
64.03144092511539
 51
115.9685590748846
  0
ARC
  5
13017
330
DE84
100
AcDbEntity
  8
0
100
AcDbCircle
 10
40.0
 20
90.75000000000001
 30
0.0
 40
5.9
100
AcDbArc
 50
244.0314409251154
 51
295.9685590748846
  0
ARC
  5
13018
330
DE84
100
AcDbEntity
  8
0
100
AcDbCircle
 10
40.0
 20
90.75000000000001
 30
0.0
 40
6.75
100
AcDbArc
 50
240.17362750394
 51
299.82637249606
  0
CIRCLE
  5
13019
330
DE84
100
AcDbEntity
  8
0
100
AcDbCircle
 10
23.27297327300596
 20
82.02297327300607
 30
0.0
 40
0.525
  0
CIRCLE
  5
1301A
330
DE84
100
AcDbEntity
  8
0
100
AcDbCircle
 10
23.27297077300909
 20
82.02297077300931
 30
0.0
 40
0.9
  0
CIRCLE
  5
1301B
330
DE84
100
AcDbEntity
  8
0
100
AcDbCircle
 10
23.27297077300909
 20
82.02297077300931
 30
0.0
 40
1.25
  0
CIRCLE
  5
1301E
330
DE84
100
AcDbEntity
  8
0
100
AcDbCircle
 10
23.27297327300119
 20
85.97703172698425
 30
0.0
 40
0.525
  0
CIRCLE
  5
1301F
330
DE84
100
AcDbEntity
  8
0
100
AcDbCircle
 10
23.27296999999987
 20
85.97703
 30
0.0
 40
0.9
  0
CIRCLE
  5
13022
330
DE84
100
AcDbEntity
  8
0
100
AcDbCircle
 10
23.27296999999987
 20
85.97703
 30
0.0
 40
1.25
  0
ARC
  5
13023
330
DE84
100
AcDbEntity
  8
0
100
AcDbCircle
 10
33.53685224913181
 20
87.04456869575938
 30
0.0
 40
0.7000000000000001
100
AcDbArc
 50
315.0
 51
29.82637249606012
  0
ARC
  5
13024
330
DE84
100
AcDbEntity
  8
0
100
AcDbCircle
 10
36.9786426992132
 20
83.45333781612636
 30
0.0
 40
1.0
100
AcDbArc
 50
225.0
 51
295.9685590748846
  0
ARC
  5
13025
330
DE84
100
AcDbEntity
  8
0
100
AcDbCircle
 10
36.29456869575927
 20
83.7131477508683
 30
0.0
 40
0.7000000000000001
100
AcDbArc
 50
225.0
 51
299.82637249606
  0
ARC
  5
13026
330
DE84
100
AcDbEntity
  8
0
100
AcDbCircle
 10
36.9786426992132
 20
84.54666218387387
 30
0.0
 40
1.0
100
AcDbArc
 50
64.03144092511539
 51
135.0
  0
ARC
  5
13027
330
DE84
100
AcDbEntity
  8
0
100
AcDbCircle
 10
36.29456869575927
 20
84.28685224913193
 30
0.0
 40
0.7000000000000001
100
AcDbArc
 50
60.17362750393998
 51
135.0
  0
LINE
  5
13028
330
DE84
100
AcDbEntity
  8
0
100
AcDbLine
 10
35.75735931288079
 20
83.26040764008576
 30
0.0
 11
36.27153591802664
 21
82.74623103493992
 31
0.0
  0
LINE
  5
13029
330
DE84
100
AcDbEntity
  8
0
100
AcDbLine
 10
35.75735931288079
 20
84.73959235991447
 30
0.0
 11
36.27153591802664
 21
85.25376896506031
 31
0.0
  0
LINE
  5
1302A
330
DE84
100
AcDbEntity
  8
0
100
AcDbLine
 10
33.98959235991436
 20
86.50735931288091
 30
0.0
 11
34.5037689650602
 21
87.02153591802675
 31
0.0
  0
ARC
  5
1302B
330
DE84
100
AcDbEntity
  8
0
100
AcDbCircle
 10
34.87347583639746
 20
82.37652416360266
 30
0.0
 40
1.25
100
AcDbArc
 50
45.0
 51
225.0
  0
CIRCLE
  5
1302C
330
DE84
100
AcDbEntity
  8
0
100
AcDbCircle
 10
34.87347583639746
 20
82.37652416360266
 30
0.0
 40
0.525
  0
CIRCLE
  5
1302D
330
DE84
100
AcDbEntity
  8
0
100
AcDbCircle
 10
34.87347583639746
 20
82.37652416360266
 30
0.0
 40
0.9
  0
ARC
  5
1302E
330
DE84
100
AcDbEntity
  8
0
100
AcDbCircle
 10
34.87347583639746
 20
85.62347583639757
 30
0.0
 40
1.25
100
AcDbArc
 50
135.0
 51
315.0
  0
CIRCLE
  5
1302F
330
DE84
100
AcDbEntity
  8
0
100
AcDbCircle
 10
34.87347583639746
 20
85.62347583639757
 30
0.0
 40
0.9
  0
CIRCLE
  5
13030
330
DE84
100
AcDbEntity
  8
0
100
AcDbCircle
 10
34.87347583639746
 20
85.62347583639757
 30
0.0
 40
0.525
  0
LINE
  5
13033
330
DE84
100
AcDbEntity
  8
0
100
AcDbLine
 10
28.60000000000002
 20
87.85000000000014
 30
0.0
 11
30.0
 21
87.85000000000014
 31
0.0
  0
ARC
  5
13034
330
DE84
100
AcDbEntity
  8
0
100
AcDbCircle
 10
25.10000000000002
 20
87.24999999999999
 30
0.0
 40
3.0
100
AcDbArc
 50
270.0
 51
0.0
  0
ARC
  5
13035
330
DE84
100
AcDbEntity
  8
0
100
AcDbCircle
 10
28.60000000000002
 20
87.35000000000013
 30
0.0
 40
0.5
100
AcDbArc
 50
90.0
 51
180.0
  0
ARC
  5
13036
330
DE84
100
AcDbEntity
  8
0
100
AcDbCircle
 10
33.79666218387376
 20
80.27135730078681
 30
0.0
 40
1.0
100
AcDbArc
 50
334.0314409251152
 51
45.0
  0
ARC
  5
13037
330
DE84
100
AcDbEntity
  8
0
100
AcDbCircle
 10
31.62968107077598
 20
77.85000000000014
 30
0.0
 40
0.3
100
AcDbArc
 50
183.0120936226022
 51
270.0
  0
ARC
  5
13038
330
DE84
100
AcDbEntity
  8
0
100
AcDbCircle
 10
31.62968107077598
 20
76.65000000000009
 30
0.0
 40
0.3
100
AcDbArc
 50
90.0
 51
176.9879063773977
  0
LINE
  5
13039
330
DE84
100
AcDbEntity
  8
0
100
AcDbLine
 10
31.62968107077598
 20
76.95000000000004
 30
0.0
 11
33.25666996210328
 21
76.95000000000004
 31
0.0
  0
LINE
  5
1303A
330
DE84
100
AcDbEntity
  8
0
100
AcDbLine
 10
31.62968107077598
 20
77.55000000000018
 30
0.0
 11
33.25666996210328
 21
77.55000000000018
 31
0.0
  0
LINE
  5
1303B
330
DE84
100
AcDbEntity
  8
0
100
AcDbLine
 10
28.60000000000002
 20
80.15000000000009
 30
0.0
 11
30.0
 21
80.15000000000009
 31
0.0
  0
ARC
  5
1303C
330
DE84
100
AcDbEntity
  8
0
100
AcDbCircle
 10
28.60000000000002
 20
80.6500000000001
 30
0.0
 40
0.5
100
AcDbArc
 50
180.0
 51
270.0
  0
ARC
  5
1303D
330
DE84
100
AcDbEntity
  8
0
100
AcDbCircle
 10
30.51359700426758
 20
77.25
 30
0.0
 40
0.2
100
AcDbArc
 50
90.0
 51
270.0
  0
LINE
  5
1303E
330
DE84
100
AcDbEntity
  8
0
100
AcDbLine
 10
30.0
 20
80.0
 30
0.0
 11
30.69999999999993
 21
80.0
 31
0.0
  0
ARC
  5
1303F
330
DE84
100
AcDbEntity
  8
0
100
AcDbCircle
 10
30.69999999999993
 20
80.30000000000018
 30
0.0
 40
0.3
100
AcDbArc
 50
270.0
 51
0.0
  0
ARC
  5
13040
330
DE84
100
AcDbEntity
  8
0
100
AcDbCircle
 10
20.22705006082299
 20
77.25
 30
0.0
 40
11.11840592854991
100
AcDbArc
 50
3.012093622602295
 51
14.32002167729535
  0
LINE
  5
13041
330
DE84
100
AcDbEntity
  8
0
100
AcDbLine
 10
30.51359700426758
 20
77.05000000000018
 30
0.0
 11
33.25296361355595
 21
77.05000000000018
 31
0.0
  0
LINE
  5
13042
330
DE84
100
AcDbEntity
  8
0
100
AcDbLine
 10
30.51359700426758
 20
77.45000000000004
 30
0.0
 11
33.25296361355595
 21
77.45000000000004
 31
0.0
  0
ARC
  5
13043
330
DE84
100
AcDbEntity
  8
0
100
AcDbCircle
 10
25.10000000000002
 20
80.75000000000001
 30
0.0
 40
3.0
100
AcDbArc
 50
0.0
 51
90.0
  0
LINE
  5
13044
330
DE84
100
AcDbEntity
  8
0
100
AcDbLine
 10
31.0
 20
87.70000000000004
 30
0.0
 11
31.0
 21
80.30000000000018
 31
0.0
  0
ARC
  5
13045
330
DE84
100
AcDbEntity
  8
0
100
AcDbCircle
 10
33.53685224913181
 20
80.95543130424085
 30
0.0
 40
0.7000000000000001
100
AcDbArc
 50
330.1736275039399
 51
45.0
  0
LINE
  5
13046
330
DE84
100
AcDbEntity
  8
0
100
AcDbLine
 10
33.98959235991436
 20
81.49264068711932
 30
0.0
 11
34.5037689650602
 21
80.97846408197346
 31
0.0
  0
LINE
  5
13049
330
DE84
100
AcDbEntity
  8
0
100
AcDbLine
 10
51.39999999999997
 20
87.85000000000014
 30
0.0
 11
50.0
 21
87.85000000000014
 31
0.0
  0
ARC
  5
1304A
330
DE84
100
AcDbEntity
  8
0
100
AcDbCircle
 10
51.39999999999997
 20
87.35000000000013
 30
0.0
 40
0.5
100
AcDbArc
 50
0.0
 51
90.0
  0
ARC
  5
1304B
330
DE84
100
AcDbEntity
  8
0
100
AcDbCircle
 10
48.3703189292238
 20
76.65000000000009
 30
0.0
 40
0.3
100
AcDbArc
 50
3.012093622602295
 51
90.0
  0
ARC
  5
1304C
330
DE84
100
AcDbEntity
  8
0
100
AcDbCircle
 10
49.29999999999996
 20
80.30000000000018
 30
0.0
 40
0.3
100
AcDbArc
 50
180.0
 51
270.0
  0
ARC
  5
1304D
330
DE84
100
AcDbEntity
  8
0
100
AcDbCircle
 10
48.3703189292238
 20
77.85000000000014
 30
0.0
 40
0.3
100
AcDbArc
 50
270.0
 51
356.9879063773977
  0
ARC
  5
1304E
330
DE84
100
AcDbEntity
  8
0
100
AcDbCircle
 10
59.77294993917701
 20
77.25
 30
0.0
 40
11.11840592854991
100
AcDbArc
 50
165.6799783227046
 51
176.9879063773977
  0
LINE
  5
1304F
330
DE84
100
AcDbEntity
  8
0
100
AcDbLine
 10
50.0
 20
80.0
 30
0.0
 11
49.30000000000006
 21
80.0
 31
0.0
  0
ARC
  5
13050
330
DE84
100
AcDbEntity
  8
0
100
AcDbCircle
 10
49.48640299573231
 20
77.25
 30
0.0
 40
0.2
100
AcDbArc
 50
270.0
 51
90.0
  0
LINE
  5
13051
330
DE84
100
AcDbEntity
  8
0
100
AcDbLine
 10
51.39999999999997
 20
80.15000000000009
 30
0.0
 11
50.0
 21
80.15000000000009
 31
0.0
  0
ARC
  5
13052
330
DE84
100
AcDbEntity
  8
0
100
AcDbCircle
 10
51.39999999999997
 20
80.6500000000001
 30
0.0
 40
0.5
100
AcDbArc
 50
270.0
 51
0.0
  0
LINE
  5
13053
330
DE84
100
AcDbEntity
  8
0
100
AcDbLine
 10
49.0
 20
87.70000000000004
 30
0.0
 11
49.0
 21
80.30000000000018
 31
0.0
  0
ARC
  5
13054
330
DE84
100
AcDbEntity
  8
0
100
AcDbCircle
 10
45.12652416360253
 20
82.37652416360266
 30
0.0
 40
1.25
100
AcDbArc
 50
315.0
 51
135.0
  0
ARC
  5
13055
330
DE84
100
AcDbEntity
  8
0
100
AcDbCircle
 10
45.12652416360253
 20
85.62347583639757
 30
0.0
 40
1.25
100
AcDbArc
 50
225.0
 51
45.0
  0
ARC
  5
13056
330
DE84
100
AcDbEntity
  8
0
100
AcDbCircle
 10
46.46314775086819
 20
87.04456869575938
 30
0.0
 40
0.7000000000000001
100
AcDbArc
 50
150.1736275039398
 51
225.0
  0
CIRCLE
  5
13057
330
DE84
100
AcDbEntity
  8
0
100
AcDbCircle
 10
45.12652416360253
 20
82.37652416360266
 30
0.0
 40
0.9
  0
CIRCLE
  5
13058
330
DE84
100
AcDbEntity
  8
0
100
AcDbCircle
 10
45.12652416360253
 20
82.37652416360266
 30
0.0
 40
0.525
  0
CIRCLE
  5
13059
330
DE84
100
AcDbEntity
  8
0
100
AcDbCircle
 10
45.12652416360253
 20
85.62347583639757
 30
0.0
 40
0.9
  0
CIRCLE
  5
1305A
330
DE84
100
AcDbEntity
  8
0
100
AcDbCircle
 10
45.12652416360253
 20
85.62347583639757
 30
0.0
 40
0.525
  0
LINE
  5
1305D
330
DE84
100
AcDbEntity
  8
0
100
AcDbLine
 10
44.2426406871192
 20
83.26040764008576
 30
0.0
 11
43.72846408197335
 21
82.74623103493992
 31
0.0
  0
LINE
  5
1305E
330
DE84
100
AcDbEntity
  8
0
100
AcDbLine
 10
44.2426406871192
 20
84.73959235991447
 30
0.0
 11
43.72846408197335
 21
85.25376896506031
 31
0.0
  0
ARC
  5
1305F
330
DE84
100
AcDbEntity
  8
0
100
AcDbCircle
 10
43.0213573007868
 20
83.45333781612636
 30
0.0
 40
1.0
100
AcDbArc
 50
244.0314409251154
 51
315.0
  0
ARC
  5
13060
330
DE84
100
AcDbEntity
  8
0
100
AcDbCircle
 10
43.70543130424062
 20
83.7131477508683
 30
0.0
 40
0.7000000000000001
100
AcDbArc
 50
240.17362750394
 51
315.0
  0
ARC
  5
13061
330
DE84
100
AcDbEntity
  8
0
100
AcDbCircle
 10
43.0213573007868
 20
84.54666218387387
 30
0.0
 40
1.0
100
AcDbArc
 50
45.0
 51
115.9685590748846
  0
ARC
  5
13062
330
DE84
100
AcDbEntity
  8
0
100
AcDbCircle
 10
43.70543130424062
 20
84.28685224913193
 30
0.0
 40
0.7000000000000001
100
AcDbArc
 50
45.0
 51
119.82637249606
  0
LINE
  5
13063
330
DE84
100
AcDbEntity
  8
0
100
AcDbLine
 10
46.01040764008565
 20
86.50735931288091
 30
0.0
 11
45.4962310349398
 21
87.02153591802675
 31
0.0
  0
ARC
  5
13064
330
DE84
100
AcDbEntity
  8
0
100
AcDbCircle
 10
46.20333781612623
 20
80.27135730078681
 30
0.0
 40
1.0
100
AcDbArc
 50
135.0
 51
205.9685590748848
  0
ARC
  5
13067
330
DE84
100
AcDbEntity
  8
0
100
AcDbCircle
 10
46.46314775086819
 20
80.95543130424085
 30
0.0
 40
0.7000000000000001
100
AcDbArc
 50
135.0
 51
209.8263724960601
  0
LINE
  5
13068
330
DE84
100
AcDbEntity
  8
0
100
AcDbLine
 10
46.01040764008565
 20
81.49264068711932
 30
0.0
 11
45.4962310349398
 21
80.97846408197346
 31
0.0
  0
LINE
  5
13069
330
DE84
100
AcDbEntity
  8
0
100
AcDbLine
 10
49.48640299573241
 20
77.45000000000004
 30
0.0
 11
46.74703638644404
 21
77.45000000000004
 31
0.0
  0
LINE
  5
1306A
330
DE84
100
AcDbEntity
  8
0
100
AcDbLine
 10
49.48640299573241
 20
77.05000000000018
 30
0.0
 11
46.74703638644404
 21
77.05000000000018
 31
0.0
  0
LINE
  5
1306B
330
DE84
100
AcDbEntity
  8
0
100
AcDbLine
 10
48.3703189292238
 20
77.55000000000018
 30
0.0
 11
46.74333003789672
 21
77.55000000000018
 31
0.0
  0
LINE
  5
1306C
330
DE84
100
AcDbEntity
  8
0
100
AcDbLine
 10
48.3703189292238
 20
76.95000000000004
 30
0.0
 11
46.74333003789672
 21
76.95000000000004
 31
0.0
  0
ARC
  5
1306D
330
DE84
100
AcDbEntity
  8
0
100
AcDbCircle
 10
63.14321999999993
 20
75.34898000000021
 30
0.0
 40
1.899999
100
AcDbArc
 50
299.9003000000111
 51
35.00002999996312
  0
ARC
  5
1306E
330
DE84
100
AcDbEntity
  8
0
100
AcDbCircle
 10
58.65677999999991
 20
75.34898000000021
 30
0.0
 40
1.899999
100
AcDbArc
 50
145.0000000000211
 51
240.099599999981
  0
ARC
  5
1306F
330
DE84
100
AcDbEntity
  8
0
100
AcDbCircle
 10
61.49999999999988
 20
77.25
 30
0.0
 40
6.4
100
AcDbArc
 50
325.4753174849993
 51
34.5246861567362
  0
ARC
  5
13070
330
DE84
100
AcDbEntity
  8
0
100
AcDbCircle
 10
61.49999999999988
 20
77.25
 30
0.0
 40
6.4
100
AcDbArc
 50
145.4753174849993
 51
214.5245989381181
  0
LINE
  5
13071
330
DE84
100
AcDbEntity
  8
0
100
AcDbLine
 10
58.26170999999987
 20
74.30131000000006
 30
0.0
 11
60.10030999999992
 21
78.24477000000001
 31
0.0
  0
LINE
  5
13072
330
DE84
100
AcDbEntity
  8
0
100
AcDbLine
 10
59.82391999999993
 20
78.56465000000003
 30
0.0
 11
58.16116999999997
 21
74.32046000000013
 31
0.0
  0
LINE
  5
13073
330
DE84
100
AcDbEntity
  8
0
100
AcDbLine
 10
61.06681999999989
 20
77.98514999999998
 30
0.0
 11
58.8848099999999
 21
73.98307000000023
 31
0.0
  0
LINE
  5
13074
330
DE84
100
AcDbEntity
  8
0
100
AcDbLine
 10
58.80552
 20
74.04777000000013
 30
0.0
 11
60.64412000000004
 21
77.99122000000011
 31
0.0
  0
LINE
  5
13076
330
DE84
100
AcDbEntity
  8
0
100
AcDbLine
 10
73.35000000000002
 20
79.15000000000009
 30
0.0
 11
73.35000000000002
 21
75.35000000000014
 31
0.0
  0
ARC
  5
13077
330
DE84
100
AcDbEntity
  8
0
100
AcDbCircle
 10
59.0
 20
77.25
 30
0.0
 40
12.0
100
AcDbArc
 50
336.4435356908832
 51
23.5564643091167
  0
LINE
  5
13078
330
DE84
100
AcDbEntity
  8
0
100
AcDbLine
 10
70.0
 20
83.25000000000001
 30
0.0
 11
70.0
 21
71.25
 31
0.0
  0
CIRCLE
  5
1307A
330
DE84
100
AcDbEntity
  8
0
100
AcDbCircle
 10
66.27297577299805
 20
72.47703422698123
 30
0.0
 40
0.525
  0
CIRCLE
  5
1307B
330
DE84
100
AcDbEntity
  8
0
100
AcDbCircle
 10
66.27296999999988
 20
72.47703000000001
 30
0.0
 40
0.9
  0
CIRCLE
  5
1307C
330
DE84
100
AcDbEntity
  8
0
100
AcDbCircle
 10
66.27296999999988
 20
72.47703000000001
 30
0.0
 40
1.25
  0
ARC
  5
1307F
330
DE84
100
AcDbEntity
  8
0
100
AcDbCircle
 10
58.53360999999996
 20
74.17455000000018
 30
0.0
 40
0.3999992
100
AcDbArc
 50
158.606400000032
 51
331.4002000000199
  0
CIRCLE
  5
13080
330
DE84
100
AcDbEntity
  8
0
100
AcDbCircle
 10
56.72703172698755
 20
72.47703172698766
 30
0.0
 40
0.525
  0
CIRCLE
  5
13081
330
DE84
100
AcDbEntity
  8
0
100
AcDbCircle
 10
56.7270299999999
 20
72.47703999999998
 30
0.0
 40
1.25
  0
CIRCLE
  5
13082
330
DE84
100
AcDbEntity
  8
0
100
AcDbCircle
 10
56.7270299999999
 20
72.47703999999998
 30
0.0
 40
0.9
  0
ARC
  5
13084
330
DE84
100
AcDbEntity
  8
0
100
AcDbCircle
 10
58.53360999999996
 20
74.17455000000018
 30
0.0
 40
0.3
100
AcDbArc
 50
155.0033000000083
 51
335.0033000000083
  0
ARC
  5
13085
330
DE84
100
AcDbEntity
  8
0
100
AcDbCircle
 10
60.89999999999998
 20
79.25
 30
0.0
 40
6.4
100
AcDbArc
 50
240.099599999981
 51
299.9003000000111
  0
ARC
  5
13086
330
DE84
100
AcDbEntity
  8
0
100
AcDbCircle
 10
61.49999999999988
 20
77.25
 30
0.0
 40
6.4
100
AcDbArc
 50
235.4752810195455
 51
304.524682514983
  0
LWPOLYLINE
  5
13087
330
DE84
100
AcDbEntity
  8
0
100
AcDbPolyline
 90
        5
 70
     0
 43
0.0
 10
58.94999999999993
 20
74.10263663590012
 10
58.94999999999993
 20
73.95000000000004
 10
62.85000000000002
 20
73.95000000000004
 10
62.85000000000002
 20
75.55000000000018
 10
59.7391299859322
 20
75.55000000000018
  0
ARC
  5
13088
330
DE84
100
AcDbEntity
  8
0
100
AcDbCircle
 10
69.5
 20
71.25
 30
0.0
 40
0.5
100
AcDbArc
 50
270.0
 51
0.0
  0
LINE
  5
13089
330
DE84
100
AcDbEntity
  8
0
100
AcDbLine
 10
69.5
 20
70.75
 30
0.0
 11
54.89999999999998
 21
70.75
 31
0.0
  0
LINE
  5
1308A
330
DE84
100
AcDbEntity
  8
0
100
AcDbLine
 10
73.35000000000002
 20
75.35000000000014
 30
0.0
 11
70.84862861262855
 21
75.35000000000014
 31
0.0
  0
ARC
  5
1308B
330
DE84
100
AcDbEntity
  8
0
100
AcDbCircle
 10
64.59999999999991
 20
79.75
 30
0.0
 40
1.899999
100
AcDbArc
 50
74.63968248079985
 51
144.665540744328
  0
CIRCLE
  5
1308C
330
DE84
100
AcDbEntity
  8
0
100
AcDbCircle
 10
64.59999999999991
 20
79.75
 30
0.0
 40
1.4
  0
CIRCLE
  5
1308D
330
DE84
100
AcDbEntity
  8
0
100
AcDbCircle
 10
66.27297327300595
 20
82.02297327300607
 30
0.0
 40
0.525
  0
CIRCLE
  5
1308E
330
DE84
100
AcDbEntity
  8
0
100
AcDbCircle
 10
66.27297077300909
 20
82.02297077300931
 30
0.0
 40
0.9
  0
CIRCLE
  5
1308F
330
DE84
100
AcDbEntity
  8
0
100
AcDbCircle
 10
66.27297077300909
 20
82.02297077300931
 30
0.0
 40
1.25
  0
ARC
  5
13092
330
DE84
100
AcDbEntity
  8
0
100
AcDbCircle
 10
64.59999999999991
 20
79.75
 30
0.0
 40
1.899999
100
AcDbArc
 50
231.9300593361817
 51
32.65207881484124
  0
ARC
  5
13093
330
DE84
100
AcDbEntity
  8
0
100
AcDbCircle
 10
61.59359999999992
 20
77.69794000000001
 30
0.0
 40
0.6000000000000001
100
AcDbArc
 50
114.0796000000324
 51
151.4000000000175
  0
ARC
  5
13094
330
DE84
100
AcDbEntity
  8
0
100
AcDbCircle
 10
61.27854999999988
 20
77.69542999999998
 30
0.0
 40
0.7000000000000001
100
AcDbArc
 50
103.6856000000049
 51
155.0030999999954
  0
ARC
  5
13095
330
DE84
100
AcDbEntity
  8
0
100
AcDbCircle
 10
60.89999999999998
 20
79.25
 30
0.0
 40
0.9
100
AcDbArc
 50
196.1275999999859
 51
206.3206000000067
  0
ARC
  5
13096
330
DE84
100
AcDbEntity
  8
0
100
AcDbCircle
 10
60.89999999999998
 20
79.25
 30
0.0
 40
1.1
100
AcDbArc
 50
193.1365000000455
 51
195.9265999999735
  0
ARC
  5
13097
330
DE84
100
AcDbEntity
  8
0
100
AcDbCircle
 10
59.2652599999999
 20
78.78350000000001
 30
0.0
 40
0.6000000000000001
100
AcDbArc
 50
338.6063000000295
 51
15.92661000004594
  0
ARC
  5
13098
330
DE84
100
AcDbEntity
  8
0
100
AcDbCircle
 10
59.46587999999997
 20
78.54057000000011
 30
0.0
 40
0.7000000000000001
100
AcDbArc
 50
335.0030999999954
 51
26.3205899999604
  0
ARC
  5
13099
330
DE84
100
AcDbEntity
  8
0
100
AcDbCircle
 10
60.89999999999998
 20
79.25
 30
0.0
 40
0.9
100
AcDbArc
 50
283.6854999999702
 51
343.8724000000141
  0
ARC
  5
1309A
330
DE84
100
AcDbEntity
  8
0
100
AcDbCircle
 10
60.89999999999998
 20
79.25
 30
0.0
 40
1.1
100
AcDbArc
 50
294.0794999999941
 51
346.8634000000401
  0
CIRCLE
  5
1309B
330
DE84
100
AcDbEntity
  8
0
100
AcDbCircle
 10
56.72703422698441
 20
82.0229757730017
 30
0.0
 40
0.525
  0
CIRCLE
  5
1309C
330
DE84
100
AcDbEntity
  8
0
100
AcDbCircle
 10
56.7270299999999
 20
82.02296999999999
 30
0.0
 40
1.25
  0
CIRCLE
  5
1309D
330
DE84
100
AcDbEntity
  8
0
100
AcDbCircle
 10
56.7270299999999
 20
82.02296999999999
 30
0.0
 40
0.9
  0
ARC
  5
130A0
330
DE84
100
AcDbEntity
  8
0
100
AcDbCircle
 10
61.49999999999988
 20
77.25
 30
0.0
 40
6.4
100
AcDbArc
 50
55.47531384320638
 51
124.5246825149829
  0
LWPOLYLINE
  5
130A1
330
DE84
100
AcDbEntity
  8
0
100
AcDbPolyline
 90
        4
 70
     1
 43
0.0
 10
59.89999999999998
 20
81.50000000000023
 10
63.10000000000002
 20
81.50000000000023
 10
63.10000000000002
 20
83.00000000000023
 10
59.89999999999998
 20
83.00000000000023
  0
LWPOLYLINE
  5
130A2
330
DE84
100
AcDbEntity
  8
0
100
AcDbPolyline
 90
        8
 70
     1
 43
0.0
 10
58.24999999999988
 20
79.00000000000023
 10
62.85000000000002
 20
79.00000000000023
 42
0.4142135623730951
 10
63.04999999999996
 20
79.20000000000005
 10
63.04999999999996
 20
81.30000000000018
 42
0.4142135623730895
 10
62.85000000000002
 20
81.50000000000023
 10
58.24999999999988
 20
81.50000000000023
 42
0.4142135623730951
 10
58.04999999999996
 20
81.30000000000018
 10
58.04999999999984
 20
79.20000000000005
 42
0.4142135623730951
  0
LINE
  5
130A3
330
DE84
100
AcDbEntity
  8
0
100
AcDbLine
 10
62.90148999999996
 20
79.00674000000003
 30
0.0
 11
64.69960000000003
 21
76.43877000000021
 31
0.0
  0
LINE
  5
130A4
330
DE84
100
AcDbEntity
  8
0
100
AcDbLine
 10
57.10038999999994
 20
76.43878000000018
 30
0.0
 11
58.89377999999999
 21
79.0
 31
0.0
  0
CIRCLE
  5
130A5
330
DE84
100
AcDbEntity
  8
0
100
AcDbCircle
 10
66.27297327300119
 20
85.97703172698425
 30
0.0
 40
0.525
  0
CIRCLE
  5
130A6
330
DE84
100
AcDbEntity
  8
0
100
AcDbCircle
 10
66.27296999999988
 20
85.97703
 30
0.0
 40
0.9
  0
CIRCLE
  5
130A9
330
DE84
100
AcDbEntity
  8
0
100
AcDbCircle
 10
66.27296999999988
 20
85.97703
 30
0.0
 40
1.25
  0
CIRCLE
  5
130AA
330
DE84
100
AcDbEntity
  8
0
100
AcDbCircle
 10
56.7270299999999
 20
85.97704000000021
 30
0.0
 40
0.9
  0
CIRCLE
  5
130AB
330
DE84
100
AcDbEntity
  8
0
100
AcDbCircle
 10
56.72703172698755
 20
85.97703172698766
 30
0.0
 40
0.525
  0
CIRCLE
  5
130AE
330
DE84
100
AcDbEntity
  8
0
100
AcDbCircle
 10
56.7270299999999
 20
85.97704000000021
 30
0.0
 40
1.25
  0
ARC
  5
130AF
330
DE84
100
AcDbEntity
  8
0
100
AcDbCircle
 10
61.49999999999988
 20
90.75000000000001
 30
0.0
 40
6.4
100
AcDbArc
 50
235.4752810195455
 51
304.524682514983
  0
ARC
  5
130B0
330
DE84
100
AcDbEntity
  8
0
100
AcDbCircle
 10
60.99999999999988
 20
93.75
 30
0.0
 40
6.899999
100
AcDbArc
 50
238.4398000000013
 51
301.5601999999987
  0
ARC
  5
130B1
330
DE84
100
AcDbEntity
  8
0
100
AcDbCircle
 10
69.5
 20
83.25000000000001
 30
0.0
 40
0.5
100
AcDbArc
 50
0.0
 51
90.0
  0
ARC
  5
130B2
330
DE84
100
AcDbEntity
  8
0
100
AcDbCircle
 10
69.5
 20
84.74999999999999
 30
0.0
 40
0.5
100
AcDbArc
 50
270.0
 51
0.0
  0
LINE
  5
130B3
330
DE84
100
AcDbEntity
  8
0
100
AcDbLine
 10
69.5
 20
83.75
 30
0.0
 11
54.89999999999998
 21
83.75
 31
0.0
  0
LINE
  5
130B4
330
DE84
100
AcDbEntity
  8
0
100
AcDbLine
 10
69.5
 20
84.25
 30
0.0
 11
54.89999999999998
 21
84.25
 31
0.0
  0
LINE
  5
130B5
330
DE84
100
AcDbEntity
  8
0
100
AcDbLine
 10
70.25
 20
86.57417672787756
 30
0.0
 11
70.25
 21
81.42582327212267
 31
0.0
  0
LINE
  5
130B6
330
DE84
100
AcDbEntity
  8
0
100
AcDbLine
 10
73.35000000000002
 20
79.15000000000009
 30
0.0
 11
70.84862861262855
 21
79.15000000000009
 31
0.0
  0
CIRCLE
  5
130B7
330
DE84
100
AcDbEntity
  8
0
100
AcDbCircle
 10
72.14999999999998
 20
77.25
 30
0.0
 40
0.525
  0
ARC
  5
130B8
330
DE84
100
AcDbEntity
  8
0
100
AcDbCircle
 10
54.89999999999998
 20
100.75
 30
0.0
 40
3.0
100
AcDbArc
 50
180.0
 51
270.0
  0
ARC
  5
130B9
330
DE84
100
AcDbEntity
  8
0
100
AcDbCircle
 10
54.89999999999998
 20
94.25
 30
0.0
 40
3.0
100
AcDbArc
 50
90.0
 51
180.0
  0
CIRCLE
  5
130BA
330
DE84
100
AcDbEntity
  8
0
100
AcDbCircle
 10
23.27297327300119
 20
99.47703172698425
 30
0.0
 40
0.525
  0
CIRCLE
  5
130BB
330
DE84
100
AcDbEntity
  8
0
100
AcDbCircle
 10
23.27296999999987
 20
99.47703000000002
 30
0.0
 40
0.9
  0
CIRCLE
  5
130BE
330
DE84
100
AcDbEntity
  8
0
100
AcDbCircle
 10
23.27296999999987
 20
99.47703000000002
 30
0.0
 40
1.25
  0
LINE
  5
130BF
330
DE84
100
AcDbEntity
  8
0
100
AcDbLine
 10
49.0
 20
101.2
 30
0.0
 11
49.0
 21
93.80000000000018
 31
0.0
  0
ARC
  5
130C0
330
DE84
100
AcDbEntity
  8
0
100
AcDbCircle
 10
45.12652416360253
 20
99.12347583639757
 30
0.0
 40
1.25
100
AcDbArc
 50
225.0
 51
45.0
  0
ARC
  5
130C1
330
DE84
100
AcDbEntity
  8
0
100
AcDbCircle
 10
34.87347583639746
 20
99.12347583639757
 30
0.0
 40
1.25
100
AcDbArc
 50
135.0
 51
315.0
  0
CIRCLE
  5
130C2
330
DE84
100
AcDbEntity
  8
0
100
AcDbCircle
 10
34.87347583639746
 20
99.12347583639757
 30
0.0
 40
0.9
  0
CIRCLE
  5
130C3
330
DE84
100
AcDbEntity
  8
0
100
AcDbCircle
 10
34.87347583639746
 20
99.12347583639757
 30
0.0
 40
0.525
  0
CIRCLE
  5
130C6
330
DE84
100
AcDbEntity
  8
0
100
AcDbCircle
 10
45.12652416360253
 20
99.12347583639757
 30
0.0
 40
0.9
  0
CIRCLE
  5
130C7
330
DE84
100
AcDbEntity
  8
0
100
AcDbCircle
 10
45.12652416360253
 20
99.12347583639757
 30
0.0
 40
0.525
  0
ARC
  5
130CA
330
DE84
100
AcDbEntity
  8
0
100
AcDbCircle
 10
25.10000000000002
 20
100.75
 30
0.0
 40
3.0
100
AcDbArc
 50
270.0
 51
0.0
  0
LINE
  5
130CB
330
DE84
100
AcDbEntity
  8
0
100
AcDbLine
 10
31.0
 20
101.2
 30
0.0
 11
31.0
 21
93.80000000000018
 31
0.0
  0
CIRCLE
  5
130CC
330
DE84
100
AcDbEntity
  8
0
100
AcDbCircle
 10
40.0
 20
104.25
 30
0.0
 40
4.75
  0
ARC
  5
130CD
330
DE84
100
AcDbEntity
  8
0
100
AcDbCircle
 10
40.0
 20
104.25
 30
0.0
 40
5.9
100
AcDbArc
 50
244.0314409251154
 51
295.9685590748846
  0
ARC
  5
130CE
330
DE84
100
AcDbEntity
  8
0
100
AcDbCircle
 10
40.0
 20
90.75000000000001
 30
0.0
 40
6.75
100
AcDbArc
 50
60.17362750393998
 51
119.82637249606
  0
ARC
  5
130CF
330
DE84
100
AcDbEntity
  8
0
100
AcDbCircle
 10
40.0
 20
90.75000000000001
 30
0.0
 40
5.9
100
AcDbArc
 50
64.03144092511539
 51
115.9685590748846
  0
ARC
  5
130D0
330
DE84
100
AcDbEntity
  8
0
100
AcDbCircle
 10
40.0
 20
104.25
 30
0.0
 40
6.75
100
AcDbArc
 50
240.17362750394
 51
299.82637249606
  0
CIRCLE
  5
130D1
330
DE84
100
AcDbEntity
  8
0
100
AcDbCircle
 10
23.27297077300909
 20
95.52297077300933
 30
0.0
 40
0.525
  0
CIRCLE
  5
130D2
330
DE84
100
AcDbEntity
  8
0
100
AcDbCircle
 10
23.27296999999987
 20
95.52296999999999
 30
0.0
 40
0.9
  0
CIRCLE
  5
130D5
330
DE84
100
AcDbEntity
  8
0
100
AcDbCircle
 10
23.27296999999987
 20
95.52296999999999
 30
0.0
 40
1.25
  0
ARC
  5
130D6
330
DE84
100
AcDbEntity
  8
0
100
AcDbCircle
 10
36.9786426992132
 20
98.04666218387389
 30
0.0
 40
1.0
100
AcDbArc
 50
64.03144092511539
 51
135.0
  0
ARC
  5
130D7
330
DE84
100
AcDbEntity
  8
0
100
AcDbCircle
 10
36.9786426992132
 20
96.95333781612635
 30
0.0
 40
1.0
100
AcDbArc
 50
225.0
 51
295.9685590748846
  0
ARC
  5
130D8
330
DE84
100
AcDbEntity
  8
0
100
AcDbCircle
 10
36.29456869575927
 20
97.21314775086831
 30
0.0
 40
0.7000000000000001
100
AcDbArc
 50
225.0
 51
299.82637249606
  0
ARC
  5
130D9
330
DE84
100
AcDbEntity
  8
0
100
AcDbCircle
 10
36.29456869575927
 20
97.78685224913193
 30
0.0
 40
0.7000000000000001
100
AcDbArc
 50
60.17362750393998
 51
135.0
  0
LINE
  5
130DA
330
DE84
100
AcDbEntity
  8
0
100
AcDbLine
 10
35.75735931288079
 20
96.76040764008575
 30
0.0
 11
36.27153591802664
 21
96.24623103493991
 31
0.0
  0
LINE
  5
130DB
330
DE84
100
AcDbEntity
  8
0
100
AcDbLine
 10
35.75735931288079
 20
98.23959235991447
 30
0.0
 11
36.27153591802664
 21
98.75376896506033
 31
0.0
  0
ARC
  5
130DC
330
DE84
100
AcDbEntity
  8
0
100
AcDbCircle
 10
33.53685224913181
 20
94.45543130424084
 30
0.0
 40
0.7000000000000001
100
AcDbArc
 50
330.1736275039399
 51
45.0
  0
LINE
  5
130DD
330
DE84
100
AcDbEntity
  8
0
100
AcDbLine
 10
33.98959235991436
 20
94.99264068711932
 30
0.0
 11
34.5037689650602
 21
94.47846408197348
 31
0.0
  0
ARC
  5
130DE
330
DE84
100
AcDbEntity
  8
0
100
AcDbCircle
 10
33.79666218387376
 20
93.77135730078681
 30
0.0
 40
1.0
100
AcDbArc
 50
334.0314409251152
 51
45.0
  0
ARC
  5
130DF
330
DE84
100
AcDbEntity
  8
0
100
AcDbCircle
 10
34.87347583639746
 20
95.87652416360265
 30
0.0
 40
1.25
100
AcDbArc
 50
45.0
 51
225.0
  0
CIRCLE
  5
130E0
330
DE84
100
AcDbEntity
  8
0
100
AcDbCircle
 10
34.87347583639746
 20
95.87652416360265
 30
0.0
 40
0.525
  0
CIRCLE
  5
130E1
330
DE84
100
AcDbEntity
  8
0
100
AcDbCircle
 10
34.87347583639746
 20
95.87652416360265
 30
0.0
 40
0.9
  0
LINE
  5
130E4
330
DE84
100
AcDbEntity
  8
0
100
AcDbLine
 10
28.60000000000002
 20
93.65000000000009
 30
0.0
 11
30.0
 21
93.65000000000009
 31
0.0
  0
ARC
  5
130E5
330
DE84
100
AcDbEntity
  8
0
100
AcDbCircle
 10
25.10000000000002
 20
94.25
 30
0.0
 40
3.0
100
AcDbArc
 50
0.0
 51
90.0
  0
ARC
  5
130E6
330
DE84
100
AcDbEntity
  8
0
100
AcDbCircle
 10
28.60000000000002
 20
94.15000000000009
 30
0.0
 40
0.5
100
AcDbArc
 50
180.0
 51
270.0
  0
LINE
  5
130E7
330
DE84
100
AcDbEntity
  8
0
100
AcDbLine
 10
30.0
 20
93.49999999999999
 30
0.0
 11
30.69999999999993
 21
93.49999999999999
 31
0.0
  0
ARC
  5
130E8
330
DE84
100
AcDbEntity
  8
0
100
AcDbCircle
 10
30.69999999999993
 20
93.80000000000018
 30
0.0
 40
0.3
100
AcDbArc
 50
270.0
 51
0.0
  0
ARC
  5
130E9
330
DE84
100
AcDbEntity
  8
0
100
AcDbCircle
 10
31.62968107077598
 20
91.35000000000013
 30
0.0
 40
0.3
100
AcDbArc
 50
183.0120936226022
 51
270.0
  0
ARC
  5
130EA
330
DE84
100
AcDbEntity
  8
0
100
AcDbCircle
 10
31.62968107077598
 20
90.15000000000009
 30
0.0
 40
0.3
100
AcDbArc
 50
90.0
 51
176.9879063773977
  0
LINE
  5
130EB
330
DE84
100
AcDbEntity
  8
0
100
AcDbLine
 10
31.62968107077598
 20
91.05000000000018
 30
0.0
 11
33.25666996210328
 21
91.05000000000018
 31
0.0
  0
LINE
  5
130EC
330
DE84
100
AcDbEntity
  8
0
100
AcDbLine
 10
31.62968107077598
 20
90.45000000000005
 30
0.0
 11
33.25666996210328
 21
90.45000000000005
 31
0.0
  0
ARC
  5
130ED
330
DE84
100
AcDbEntity
  8
0
100
AcDbCircle
 10
30.51359700426758
 20
90.75000000000001
 30
0.0
 40
0.2
100
AcDbArc
 50
90.0
 51
270.0
  0
LINE
  5
130EE
330
DE84
100
AcDbEntity
  8
0
100
AcDbLine
 10
30.0
 20
88.0
 30
0.0
 11
30.69999999999993
 21
88.0
 31
0.0
  0
ARC
  5
130EF
330
DE84
100
AcDbEntity
  8
0
100
AcDbCircle
 10
20.22705006082299
 20
90.75000000000001
 30
0.0
 40
11.11840592854991
100
AcDbArc
 50
345.6799783227046
 51
356.9879063773977
  0
LINE
  5
130F0
330
DE84
100
AcDbEntity
  8
0
100
AcDbLine
 10
30.51359700426758
 20
90.95000000000004
 30
0.0
 11
33.25296361355595
 21
90.95000000000004
 31
0.0
  0
LINE
  5
130F1
330
DE84
100
AcDbEntity
  8
0
100
AcDbLine
 10
30.51359700426758
 20
90.55000000000019
 30
0.0
 11
33.25296361355595
 21
90.55000000000019
 31
0.0
  0
ARC
  5
130F2
330
DE84
100
AcDbEntity
  8
0
100
AcDbCircle
 10
40.0
 20
90.75000000000001
 30
0.0
 40
5.9
100
AcDbArc
 50
154.0314409251152
 51
205.9685590748848
  0
ARC
  5
130F3
330
DE84
100
AcDbEntity
  8
0
100
AcDbCircle
 10
20.22705006082299
 20
90.75000000000001
 30
0.0
 40
11.11840592854991
100
AcDbArc
 50
3.012093622602295
 51
14.32002167729535
  0
LINE
  5
130F4
330
DE84
100
AcDbEntity
  8
0
100
AcDbLine
 10
30.0
 20
93.49999999999999
 30
0.0
 11
30.0
 21
88.0
 31
0.0
  0
LINE
  5
130F5
330
DE84
100
AcDbEntity
  8
0
100
AcDbLine
 10
50.0
 20
93.49999999999999
 30
0.0
 11
49.30000000000006
 21
93.49999999999999
 31
0.0
  0
LINE
  5
130F6
330
DE84
100
AcDbEntity
  8
0
100
AcDbLine
 10
51.39999999999997
 20
93.65000000000009
 30
0.0
 11
50.0
 21
93.65000000000009
 31
0.0
  0
ARC
  5
130F7
330
DE84
100
AcDbEntity
  8
0
100
AcDbCircle
 10
51.39999999999997
 20
94.15000000000009
 30
0.0
 40
0.5
100
AcDbArc
 50
270.0
 51
0.0
  0
ARC
  5
130F8
330
DE84
100
AcDbEntity
  8
0
100
AcDbCircle
 10
49.29999999999996
 20
93.80000000000018
 30
0.0
 40
0.3
100
AcDbArc
 50
180.0
 51
270.0
  0
ARC
  5
130F9
330
DE84
100
AcDbEntity
  8
0
100
AcDbCircle
 10
49.48640299573231
 20
90.75000000000001
 30
0.0
 40
0.2
100
AcDbArc
 50
270.0
 51
90.0
  0
LINE
  5
130FA
330
DE84
100
AcDbEntity
  8
0
100
AcDbLine
 10
50.0
 20
88.0
 30
0.0
 11
49.30000000000006
 21
88.0
 31
0.0
  0
ARC
  5
130FB
330
DE84
100
AcDbEntity
  8
0
100
AcDbCircle
 10
48.3703189292238
 20
90.15000000000009
 30
0.0
 40
0.3
100
AcDbArc
 50
3.012093622602295
 51
90.0
  0
ARC
  5
130FC
330
DE84
100
AcDbEntity
  8
0
100
AcDbCircle
 10
48.3703189292238
 20
91.35000000000013
 30
0.0
 40
0.3
100
AcDbArc
 50
270.0
 51
356.9879063773977
  0
ARC
  5
130FD
330
DE84
100
AcDbEntity
  8
0
100
AcDbCircle
 10
59.77294993917701
 20
90.75000000000001
 30
0.0
 40
11.11840592854991
100
AcDbArc
 50
183.0120936226022
 51
194.3200216772953
  0
LINE
  5
130FE
330
DE84
100
AcDbEntity
  8
0
100
AcDbLine
 10
50.0
 20
93.49999999999999
 30
0.0
 11
50.0
 21
88.0
 31
0.0
  0
ARC
  5
130FF
330
DE84
100
AcDbEntity
  8
0
100
AcDbCircle
 10
59.77294993917701
 20
90.75000000000001
 30
0.0
 40
11.11840592854991
100
AcDbArc
 50
165.6799783227046
 51
176.9879063773977
  0
ARC
  5
13100
330
DE84
100
AcDbEntity
  8
0
100
AcDbCircle
 10
45.12652416360253
 20
95.87652416360265
 30
0.0
 40
1.25
100
AcDbArc
 50
315.0
 51
135.0
  0
ARC
  5
13101
330
DE84
100
AcDbEntity
  8
0
100
AcDbCircle
 10
43.0213573007868
 20
98.04666218387389
 30
0.0
 40
1.0
100
AcDbArc
 50
45.0
 51
115.9685590748846
  0
CIRCLE
  5
13102
330
DE84
100
AcDbEntity
  8
0
100
AcDbCircle
 10
45.12652416360253
 20
95.87652416360265
 30
0.0
 40
0.9
  0
CIRCLE
  5
13103
330
DE84
100
AcDbEntity
  8
0
100
AcDbCircle
 10
45.12652416360253
 20
95.87652416360265
 30
0.0
 40
0.525
  0
LINE
  5
13106
330
DE84
100
AcDbEntity
  8
0
100
AcDbLine
 10
44.2426406871192
 20
96.76040764008575
 30
0.0
 11
43.72846408197335
 21
96.24623103493991
 31
0.0
  0
LINE
  5
13107
330
DE84
100
AcDbEntity
  8
0
100
AcDbLine
 10
44.2426406871192
 20
98.23959235991447
 30
0.0
 11
43.72846408197335
 21
98.75376896506033
 31
0.0
  0
ARC
  5
13108
330
DE84
100
AcDbEntity
  8
0
100
AcDbCircle
 10
43.0213573007868
 20
96.95333781612635
 30
0.0
 40
1.0
100
AcDbArc
 50
244.0314409251154
 51
315.0
  0
ARC
  5
13109
330
DE84
100
AcDbEntity
  8
0
100
AcDbCircle
 10
43.70543130424062
 20
97.21314775086831
 30
0.0
 40
0.7000000000000001
100
AcDbArc
 50
240.17362750394
 51
315.0
  0
ARC
  5
1310A
330
DE84
100
AcDbEntity
  8
0
100
AcDbCircle
 10
43.70543130424062
 20
97.78685224913193
 30
0.0
 40
0.7000000000000001
100
AcDbArc
 50
45.0
 51
119.82637249606
  0
ARC
  5
1310B
330
DE84
100
AcDbEntity
  8
0
100
AcDbCircle
 10
46.46314775086819
 20
94.45543130424084
 30
0.0
 40
0.7000000000000001
100
AcDbArc
 50
135.0
 51
209.8263724960601
  0
LINE
  5
1310C
330
DE84
100
AcDbEntity
  8
0
100
AcDbLine
 10
46.01040764008565
 20
94.99264068711932
 30
0.0
 11
45.4962310349398
 21
94.47846408197348
 31
0.0
  0
ARC
  5
1310D
330
DE84
100
AcDbEntity
  8
0
100
AcDbCircle
 10
46.20333781612623
 20
93.77135730078681
 30
0.0
 40
1.0
100
AcDbArc
 50
135.0
 51
205.9685590748848
  0
ARC
  5
1310E
330
DE84
100
AcDbEntity
  8
0
100
AcDbCircle
 10
40.0
 20
90.75000000000001
 30
0.0
 40
5.9
100
AcDbArc
 50
334.0314409251152
 51
25.96855907488479
  0
LINE
  5
1310F
330
DE84
100
AcDbEntity
  8
0
100
AcDbLine
 10
48.3703189292238
 20
90.45000000000005
 30
0.0
 11
46.74333003789672
 21
90.45000000000005
 31
0.0
  0
LINE
  5
13110
330
DE84
100
AcDbEntity
  8
0
100
AcDbLine
 10
48.3703189292238
 20
91.05000000000018
 30
0.0
 11
46.74333003789672
 21
91.05000000000018
 31
0.0
  0
LINE
  5
13111
330
DE84
100
AcDbEntity
  8
0
100
AcDbLine
 10
49.48640299573241
 20
90.55000000000019
 30
0.0
 11
46.74703638644404
 21
90.55000000000019
 31
0.0
  0
LINE
  5
13112
330
DE84
100
AcDbEntity
  8
0
100
AcDbLine
 10
49.48640299573241
 20
90.95000000000004
 30
0.0
 11
46.74703638644404
 21
90.95000000000004
 31
0.0
  0
ARC
  5
13113
330
DE84
100
AcDbEntity
  8
0
100
AcDbCircle
 10
40.0
 20
104.25
 30
0.0
 40
6.75
100
AcDbArc
 50
60.17362750393998
 51
119.82637249606
  0
ARC
  5
13114
330
DE84
100
AcDbEntity
  8
0
100
AcDbCircle
 10
40.0
 20
104.25
 30
0.0
 40
5.9
100
AcDbArc
 50
64.03144092511539
 51
115.9685590748846
  0
LINE
  5
13115
330
DE84
100
AcDbEntity
  8
0
100
AcDbLine
 10
31.0
 20
111.0
 30
0.0
 11
49.0
 21
111.0
 31
0.0
  0
ARC
  5
13116
330
DE84
100
AcDbEntity
  8
0
100
AcDbCircle
 10
20.61696999999993
 20
102.98954
 30
0.0
 40
1.9
100
AcDbArc
 50
301.5601999999987
 51
34.99999999997888
  0
ARC
  5
13117
330
DE84
100
AcDbEntity
  8
0
100
AcDbCircle
 10
18.49999999999988
 20
104.25
 30
0.0
 40
6.4
100
AcDbArc
 50
325.4753174849993
 51
34.52468251500071
  0
CIRCLE
  5
13118
330
DE84
100
AcDbEntity
  8
0
100
AcDbCircle
 10
23.27297077300909
 20
109.0229707730093
 30
0.0
 40
0.525
  0
CIRCLE
  5
13119
330
DE84
100
AcDbEntity
  8
0
100
AcDbCircle
 10
23.27296999999987
 20
109.02297
 30
0.0
 40
0.9
  0
CIRCLE
  5
1311C
330
DE84
100
AcDbEntity
  8
0
100
AcDbCircle
 10
23.27296999999987
 20
109.02297
 30
0.0
 40
1.25
  0
ARC
  5
1311D
330
DE84
100
AcDbEntity
  8
0
100
AcDbCircle
 10
34.87347583639746
 20
109.3765241636026
 30
0.0
 40
1.25
100
AcDbArc
 50
45.0
 51
225.0
  0
ARC
  5
13120
330
DE84
100
AcDbEntity
  8
0
100
AcDbCircle
 10
36.9786426992132
 20
110.4533378161263
 30
0.0
 40
1.0
100
AcDbArc
 50
225.0
 51
295.9685590748846
  0
ARC
  5
13121
330
DE84
100
AcDbEntity
  8
0
100
AcDbCircle
 10
36.29456869575927
 20
110.7131477508683
 30
0.0
 40
0.7000000000000001
100
AcDbArc
 50
225.0
 51
299.82637249606
  0
LINE
  5
13122
330
DE84
100
AcDbEntity
  8
0
100
AcDbLine
 10
35.75735931288079
 20
110.2604076400857
 30
0.0
 11
36.27153591802664
 21
109.7462310349399
 31
0.0
  0
ARC
  5
13123
330
DE84
100
AcDbEntity
  8
0
100
AcDbCircle
 10
33.53685224913181
 20
107.9554313042408
 30
0.0
 40
0.7000000000000001
100
AcDbArc
 50
330.1736275039399
 51
45.0
  0
LINE
  5
13124
330
DE84
100
AcDbEntity
  8
0
100
AcDbLine
 10
33.98959235991436
 20
108.4926406871193
 30
0.0
 11
34.5037689650602
 21
107.9784640819734
 31
0.0
  0
ARC
  5
13125
330
DE84
100
AcDbEntity
  8
0
100
AcDbCircle
 10
33.79666218387376
 20
107.2713573007868
 30
0.0
 40
1.0
100
AcDbArc
 50
334.0314409251152
 51
45.0
  0
CIRCLE
  5
13126
330
DE84
100
AcDbEntity
  8
0
100
AcDbCircle
 10
34.87347583639746
 20
109.3765241636026
 30
0.0
 40
0.525
  0
CIRCLE
  5
13127
330
DE84
100
AcDbEntity
  8
0
100
AcDbCircle
 10
34.87347583639746
 20
109.3765241636026
 30
0.0
 40
0.9
  0
LINE
  5
13128
330
DE84
100
AcDbEntity
  8
0
100
AcDbLine
 10
28.60000000000002
 20
107.1500000000001
 30
0.0
 11
30.0
 21
107.1500000000001
 31
0.0
  0
ARC
  5
13129
330
DE84
100
AcDbEntity
  8
0
100
AcDbCircle
 10
28.60000000000002
 20
107.6500000000001
 30
0.0
 40
0.5
100
AcDbArc
 50
180.0
 51
270.0
  0
LINE
  5
1312A
330
DE84
100
AcDbEntity
  8
0
100
AcDbLine
 10
31.0
 20
111.0
 30
0.0
 11
31.0
 21
107.3000000000002
 31
0.0
  0
LINE
  5
1312B
330
DE84
100
AcDbEntity
  8
0
100
AcDbLine
 10
30.0
 20
107.0
 30
0.0
 11
30.69999999999993
 21
107.0
 31
0.0
  0
ARC
  5
1312C
330
DE84
100
AcDbEntity
  8
0
100
AcDbCircle
 10
30.69999999999993
 20
107.3000000000002
 30
0.0
 40
0.3
100
AcDbArc
 50
270.0
 51
0.0
  0
ARC
  5
1312D
330
DE84
100
AcDbEntity
  8
0
100
AcDbCircle
 10
20.22705006082299
 20
104.25
 30
0.0
 40
11.11840592854997
100
AcDbArc
 50
3.012093622602295
 51
14.32002167729535
  0
LINE
  5
1312E
330
DE84
100
AcDbEntity
  8
0
100
AcDbLine
 10
33.98959235991436
 20
100.0073593128809
 30
0.0
 11
34.5037689650602
 21
100.5215359180267
 31
0.0
  0
ARC
  5
1312F
330
DE84
100
AcDbEntity
  8
0
100
AcDbCircle
 10
33.53685224913181
 20
100.5445686957594
 30
0.0
 40
0.7000000000000001
100
AcDbArc
 50
315.0
 51
29.82637249606012
  0
ARC
  5
13130
330
DE84
100
AcDbEntity
  8
0
100
AcDbCircle
 10
33.79666218387376
 20
101.2286426992132
 30
0.0
 40
1.0
100
AcDbArc
 50
315.0
 51
25.96855907488479
  0
ARC
  5
13131
330
DE84
100
AcDbEntity
  8
0
100
AcDbCircle
 10
31.62968107077609
 20
103.6500000000001
 30
0.0
 40
0.3
100
AcDbArc
 50
90.0
 51
176.9879063773977
  0
LINE
  5
13132
330
DE84
100
AcDbEntity
  8
0
100
AcDbLine
 10
31.6296810707762
 20
103.95
 30
0.0
 11
33.25666996210328
 21
103.95
 31
0.0
  0
LINE
  5
13133
330
DE84
100
AcDbEntity
  8
0
100
AcDbLine
 10
31.6296810707762
 20
104.5500000000002
 30
0.0
 11
33.25666996210328
 21
104.5500000000002
 31
0.0
  0
LINE
  5
13134
330
DE84
100
AcDbEntity
  8
0
100
AcDbLine
 10
28.60000000000002
 20
101.3500000000001
 30
0.0
 11
30.0
 21
101.3500000000001
 31
0.0
  0
ARC
  5
13135
330
DE84
100
AcDbEntity
  8
0
100
AcDbCircle
 10
28.60000000000002
 20
100.8500000000001
 30
0.0
 40
0.5
100
AcDbArc
 50
90.0
 51
180.0
  0
LINE
  5
13136
330
DE84
100
AcDbEntity
  8
0
100
AcDbLine
 10
30.0
 20
101.5
 30
0.0
 11
30.69999999999993
 21
101.5
 31
0.0
  0
ARC
  5
13137
330
DE84
100
AcDbEntity
  8
0
100
AcDbCircle
 10
30.51359700426758
 20
104.25
 30
0.0
 40
0.2
100
AcDbArc
 50
90.0
 51
270.0
  0
ARC
  5
13138
330
DE84
100
AcDbEntity
  8
0
100
AcDbCircle
 10
30.69999999999993
 20
101.2
 30
0.0
 40
0.3
100
AcDbArc
 50
0.0
 51
90.0
  0
ARC
  5
13139
330
DE84
100
AcDbEntity
  8
0
100
AcDbCircle
 10
20.22705006082299
 20
104.25
 30
0.0
 40
11.11840592854997
100
AcDbArc
 50
345.6799783227046
 51
356.9879063773977
  0
LINE
  5
1313A
330
DE84
100
AcDbEntity
  8
0
100
AcDbLine
 10
30.51359700426758
 20
104.45
 30
0.0
 11
33.25296361355595
 21
104.45
 31
0.0
  0
LINE
  5
1313B
330
DE84
100
AcDbEntity
  8
0
100
AcDbLine
 10
30.51359700426758
 20
104.0500000000001
 30
0.0
 11
33.25296361355595
 21
104.0500000000001
 31
0.0
  0
LINE
  5
1313C
330
DE84
100
AcDbEntity
  8
0
100
AcDbLine
 10
28.10000000000002
 20
107.75
 30
0.0
 11
28.10000000000002
 21
100.75
 31
0.0
  0
ARC
  5
1313D
330
DE84
100
AcDbEntity
  8
0
100
AcDbCircle
 10
40.0
 20
104.25
 30
0.0
 40
5.9
100
AcDbArc
 50
154.0314409251152
 51
205.9685590748848
  0
ARC
  5
1313E
330
DE84
100
AcDbEntity
  8
0
100
AcDbCircle
 10
40.0
 20
104.25
 30
0.0
 40
6.75
100
AcDbArc
 50
150.1736275039398
 51
209.8263724960601
  0
LINE
  5
1313F
330
DE84
100
AcDbEntity
  8
0
100
AcDbLine
 10
30.0
 20
107.1500000000001
 30
0.0
 11
30.0
 21
101.3500000000001
 31
0.0
  0
ARC
  5
13140
330
DE84
100
AcDbEntity
  8
0
100
AcDbCircle
 10
31.62968107077609
 20
104.8500000000001
 30
0.0
 40
0.3
100
AcDbArc
 50
183.0120936226022
 51
270.0
  0
LINE
  5
13141
330
DE84
100
AcDbEntity
  8
0
100
AcDbLine
 10
30.0
 20
107.0
 30
0.0
 11
30.0
 21
101.5
 31
0.0
  0
LINE
  5
13142
330
DE84
100
AcDbEntity
  8
0
100
AcDbLine
 10
49.0
 20
111.0
 30
0.0
 11
49.0
 21
107.3000000000002
 31
0.0
  0
LINE
  5
13143
330
DE84
100
AcDbEntity
  8
0
100
AcDbLine
 10
50.0
 20
107.0
 30
0.0
 11
49.30000000000006
 21
107.0
 31
0.0
  0
LINE
  5
13144
330
DE84
100
AcDbEntity
  8
0
100
AcDbLine
 10
51.39999999999997
 20
107.1500000000001
 30
0.0
 11
50.0
 21
107.1500000000001
 31
0.0
  0
ARC
  5
13145
330
DE84
100
AcDbEntity
  8
0
100
AcDbCircle
 10
51.39999999999997
 20
107.6500000000001
 30
0.0
 40
0.5
100
AcDbArc
 50
270.0
 51
0.0
  0
ARC
  5
13146
330
DE84
100
AcDbEntity
  8
0
100
AcDbCircle
 10
49.29999999999996
 20
107.3000000000002
 30
0.0
 40
0.3
100
AcDbArc
 50
180.0
 51
270.0
  0
ARC
  5
13147
330
DE84
100
AcDbEntity
  8
0
100
AcDbCircle
 10
59.77294993917713
 20
104.25
 30
0.0
 40
11.11840592854997
100
AcDbArc
 50
165.6799783227046
 51
176.9879063773977
  0
ARC
  5
13148
330
DE84
100
AcDbEntity
  8
0
100
AcDbCircle
 10
49.48640299573231
 20
104.25
 30
0.0
 40
0.2
100
AcDbArc
 50
270.0
 51
90.0
  0
LINE
  5
13149
330
DE84
100
AcDbEntity
  8
0
100
AcDbLine
 10
50.0
 20
101.5
 30
0.0
 11
49.30000000000006
 21
101.5
 31
0.0
  0
LINE
  5
1314A
330
DE84
100
AcDbEntity
  8
0
100
AcDbLine
 10
51.39999999999997
 20
101.3500000000001
 30
0.0
 11
50.0
 21
101.3500000000001
 31
0.0
  0
ARC
  5
1314B
330
DE84
100
AcDbEntity
  8
0
100
AcDbCircle
 10
51.39999999999997
 20
100.8500000000001
 30
0.0
 40
0.5
100
AcDbArc
 50
0.0
 51
90.0
  0
ARC
  5
1314C
330
DE84
100
AcDbEntity
  8
0
100
AcDbCircle
 10
49.29999999999996
 20
101.2
 30
0.0
 40
0.3
100
AcDbArc
 50
90.0
 51
180.0
  0
ARC
  5
1314D
330
DE84
100
AcDbEntity
  8
0
100
AcDbCircle
 10
48.3703189292238
 20
103.6500000000001
 30
0.0
 40
0.3
100
AcDbArc
 50
3.012093622602295
 51
90.0
  0
ARC
  5
1314E
330
DE84
100
AcDbEntity
  8
0
100
AcDbCircle
 10
59.77294993917713
 20
104.25
 30
0.0
 40
11.11840592854997
100
AcDbArc
 50
183.0120936226022
 51
194.3200216772953
  0
LINE
  5
1314F
330
DE84
100
AcDbEntity
  8
0
100
AcDbLine
 10
51.89999999999997
 20
107.75
 30
0.0
 11
51.89999999999997
 21
100.75
 31
0.0
  0
LINE
  5
13150
330
DE84
100
AcDbEntity
  8
0
100
AcDbLine
 10
50.0
 20
107.1500000000001
 30
0.0
 11
50.0
 21
101.3500000000001
 31
0.0
  0
LINE
  5
13151
330
DE84
100
AcDbEntity
  8
0
100
AcDbLine
 10
50.0
 20
107.0
 30
0.0
 11
50.0
 21
101.5
 31
0.0
  0
ARC
  5
13152
330
DE84
100
AcDbEntity
  8
0
100
AcDbCircle
 10
48.3703189292238
 20
104.8500000000001
 30
0.0
 40
0.3
100
AcDbArc
 50
270.0
 51
356.9879063773977
  0
ARC
  5
13153
330
DE84
100
AcDbEntity
  8
0
100
AcDbCircle
 10
45.12652416360253
 20
109.3765241636026
 30
0.0
 40
1.25
100
AcDbArc
 50
315.0
 51
135.0
  0
CIRCLE
  5
13156
330
DE84
100
AcDbEntity
  8
0
100
AcDbCircle
 10
45.12652416360253
 20
109.3765241636026
 30
0.0
 40
0.9
  0
CIRCLE
  5
13157
330
DE84
100
AcDbEntity
  8
0
100
AcDbCircle
 10
45.12652416360253
 20
109.3765241636026
 30
0.0
 40
0.525
  0
LINE
  5
13158
330
DE84
100
AcDbEntity
  8
0
100
AcDbLine
 10
44.2426406871192
 20
110.2604076400857
 30
0.0
 11
43.72846408197335
 21
109.7462310349399
 31
0.0
  0
ARC
  5
13159
330
DE84
100
AcDbEntity
  8
0
100
AcDbCircle
 10
43.0213573007868
 20
110.4533378161263
 30
0.0
 40
1.0
100
AcDbArc
 50
244.0314409251154
 51
315.0
  0
ARC
  5
1315A
330
DE84
100
AcDbEntity
  8
0
100
AcDbCircle
 10
43.70543130424062
 20
110.7131477508683
 30
0.0
 40
0.7000000000000001
100
AcDbArc
 50
240.17362750394
 51
315.0
  0
ARC
  5
1315B
330
DE84
100
AcDbEntity
  8
0
100
AcDbCircle
 10
46.46314775086819
 20
107.9554313042408
 30
0.0
 40
0.7000000000000001
100
AcDbArc
 50
135.0
 51
209.8263724960601
  0
LINE
  5
1315C
330
DE84
100
AcDbEntity
  8
0
100
AcDbLine
 10
46.01040764008565
 20
108.4926406871193
 30
0.0
 11
45.4962310349398
 21
107.9784640819734
 31
0.0
  0
ARC
  5
1315D
330
DE84
100
AcDbEntity
  8
0
100
AcDbCircle
 10
46.20333781612623
 20
107.2713573007868
 30
0.0
 40
1.0
100
AcDbArc
 50
135.0
 51
205.9685590748848
  0
LINE
  5
1315E
330
DE84
100
AcDbEntity
  8
0
100
AcDbLine
 10
46.01040764008565
 20
100.0073593128809
 30
0.0
 11
45.4962310349398
 21
100.5215359180267
 31
0.0
  0
ARC
  5
1315F
330
DE84
100
AcDbEntity
  8
0
100
AcDbCircle
 10
46.46314775086819
 20
100.5445686957594
 30
0.0
 40
0.7000000000000001
100
AcDbArc
 50
150.1736275039398
 51
225.0
  0
ARC
  5
13160
330
DE84
100
AcDbEntity
  8
0
100
AcDbCircle
 10
46.20333781612623
 20
101.2286426992132
 30
0.0
 40
1.0
100
AcDbArc
 50
154.0314409251152
 51
225.0
  0
ARC
  5
13161
330
DE84
100
AcDbEntity
  8
0
100
AcDbCircle
 10
40.0
 20
104.25
 30
0.0
 40
6.75
100
AcDbArc
 50
330.1736275039399
 51
29.82637249606012
  0
ARC
  5
13162
330
DE84
100
AcDbEntity
  8
0
100
AcDbCircle
 10
40.0
 20
104.25
 30
0.0
 40
5.9
100
AcDbArc
 50
334.0314409251152
 51
25.96855907488479
  0
LINE
  5
13163
330
DE84
100
AcDbEntity
  8
0
100
AcDbLine
 10
49.48640299573241
 20
104.0500000000001
 30
0.0
 11
46.74703638644404
 21
104.0500000000001
 31
0.0
  0
LINE
  5
13164
330
DE84
100
AcDbEntity
  8
0
100
AcDbLine
 10
49.48640299573241
 20
104.45
 30
0.0
 11
46.74703638644404
 21
104.45
 31
0.0
  0
LINE
  5
13165
330
DE84
100
AcDbEntity
  8
0
100
AcDbLine
 10
48.3703189292238
 20
104.5500000000002
 30
0.0
 11
46.74333003789672
 21
104.5500000000002
 31
0.0
  0
LINE
  5
13166
330
DE84
100
AcDbEntity
  8
0
100
AcDbLine
 10
48.3703189292238
 20
103.95
 30
0.0
 11
46.74333003789672
 21
103.95
 31
0.0
  0
CIRCLE
  5
13167
330
DE84
100
AcDbEntity
  8
0
100
AcDbCircle
 10
66.27297327300119
 20
99.47703172698425
 30
0.0
 40
0.525
  0
CIRCLE
  5
13168
330
DE84
100
AcDbEntity
  8
0
100
AcDbCircle
 10
66.27296999999988
 20
99.47703000000002
 30
0.0
 40
0.9
  0
CIRCLE
  5
1316B
330
DE84
100
AcDbEntity
  8
0
100
AcDbCircle
 10
66.27296999999988
 20
99.47703000000002
 30
0.0
 40
1.25
  0
CIRCLE
  5
1316C
330
DE84
100
AcDbEntity
  8
0
100
AcDbCircle
 10
56.7270299999999
 20
99.47704000000022
 30
0.0
 40
0.9
  0
CIRCLE
  5
1316D
330
DE84
100
AcDbEntity
  8
0
100
AcDbCircle
 10
56.72703172698755
 20
99.47703172698766
 30
0.0
 40
0.525
  0
CIRCLE
  5
13170
330
DE84
100
AcDbEntity
  8
0
100
AcDbCircle
 10
56.7270299999999
 20
99.47704000000022
 30
0.0
 40
1.25
  0
LINE
  5
13171
330
DE84
100
AcDbEntity
  8
0
100
AcDbLine
 10
70.25
 20
100.0741767278775
 30
0.0
 11
70.25
 21
94.92582327212266
 31
0.0
  0
LINE
  5
13172
330
DE84
100
AcDbEntity
  8
0
100
AcDbLine
 10
70.0
 20
110.25
 30
0.0
 11
70.0
 21
98.25000000000001
 31
0.0
  0
ARC
  5
13173
330
DE84
100
AcDbEntity
  8
0
100
AcDbCircle
 10
59.0
 20
104.25
 30
0.0
 40
12.0
100
AcDbArc
 50
336.4435356908832
 51
23.5564643091167
  0
ARC
  5
13174
330
DE84
100
AcDbEntity
  8
0
100
AcDbCircle
 10
61.49999999999988
 20
104.25
 30
0.0
 40
6.4
100
AcDbArc
 50
235.4752810195455
 51
304.524682514983
  0
LINE
  5
13175
330
DE84
100
AcDbEntity
  8
0
100
AcDbLine
 10
63.12828999999999
 20
93.49999999999999
 30
0.0
 11
65.17335999999989
 21
90.57934000000022
 31
0.0
  0
CIRCLE
  5
13176
330
DE84
100
AcDbEntity
  8
0
100
AcDbCircle
 10
66.27297077300909
 20
95.52297077300933
 30
0.0
 40
0.525
  0
CIRCLE
  5
13177
330
DE84
100
AcDbEntity
  8
0
100
AcDbCircle
 10
66.27296999999988
 20
95.52296999999999
 30
0.0
 40
0.9
  0
CIRCLE
  5
1317A
330
DE84
100
AcDbEntity
  8
0
100
AcDbCircle
 10
66.27296999999988
 20
95.52296999999999
 30
0.0
 40
1.25
  0
LINE
  5
1317B
330
DE84
100
AcDbEntity
  8
0
100
AcDbLine
 10
61.29810999999995
 20
92.50952000000006
 30
0.0
 11
59.54637999999988
 21
88.30128000000014
 31
0.0
  0
LINE
  5
1317C
330
DE84
100
AcDbEntity
  8
0
100
AcDbLine
 10
59.46076000000005
 20
88.35734000000002
 30
0.0
 11
60.87709999999993
 21
92.47137000000021
 31
0.0
  0
LINE
  5
1317D
330
DE84
100
AcDbEntity
  8
0
100
AcDbLine
 10
60.00144999999998
 20
92.95593000000009
 30
0.0
 11
58.79144999999994
 21
88.56118000000014
 31
0.0
  0
LINE
  5
1317E
330
DE84
100
AcDbEntity
  8
0
100
AcDbLine
 10
58.89343999999994
 20
88.55265000000008
 30
0.0
 11
60.30975999999999
 21
92.66669000000002
 31
0.0
  0
ARC
  5
1317F
330
DE84
100
AcDbEntity
  8
0
100
AcDbCircle
 10
59.17708999999991
 20
88.45499000000017
 30
0.0
 40
0.3
100
AcDbArc
 50
161.0032999999807
 51
341.0032999999808
  0
ARC
  5
13180
330
DE84
100
AcDbEntity
  8
0
100
AcDbCircle
 10
60.99999999999988
 20
93.75
 30
0.0
 40
1.1
100
AcDbArc
 50
300.0796000000176
 51
346.8633999999863
  0
ARC
  5
13181
330
DE84
100
AcDbEntity
  8
0
100
AcDbCircle
 10
60.99999999999988
 20
93.75
 30
0.0
 40
0.9
100
AcDbArc
 50
289.6857000000052
 51
343.8724000000141
  0
ARC
  5
13182
330
DE84
100
AcDbEntity
  8
0
100
AcDbCircle
 10
59.64788999999996
 20
92.89454999999998
 30
0.0
 40
0.7000000000000001
100
AcDbArc
 50
341.0031999999744
 51
32.32059000002235
  0
ARC
  5
13183
330
DE84
100
AcDbEntity
  8
0
100
AcDbCircle
 10
59.42297999999993
 20
93.11518999999998
 30
0.0
 40
0.6000000000000001
100
AcDbArc
 50
344.6062999999583
 51
21.92661000002215
  0
ARC
  5
13184
330
DE84
100
AcDbEntity
  8
0
100
AcDbCircle
 10
60.99999999999988
 20
93.75
 30
0.0
 40
1.1
100
AcDbArc
 50
193.1369000000023
 51
201.9265999999987
  0
ARC
  5
13185
330
DE84
100
AcDbEntity
  8
0
100
AcDbCircle
 10
60.99999999999988
 20
93.75
 30
0.0
 40
0.9
100
AcDbArc
 50
196.1279999999981
 51
212.3205999999899
  0
ARC
  5
13186
330
DE84
100
AcDbEntity
  8
0
100
AcDbCircle
 10
61.85203999999988
 20
92.27894000000015
 30
0.0
 40
0.6000000000000001
100
AcDbArc
 50
120.0796000000176
 51
157.400000000022
  0
ARC
  5
13187
330
DE84
100
AcDbEntity
  8
0
100
AcDbCircle
 10
61.53896999999995
 20
92.24351999999999
 30
0.0
 40
0.7000000000000001
100
AcDbArc
 50
109.6855999999881
 51
161.0031000000165
  0
LINE
  5
13188
330
DE84
100
AcDbEntity
  8
0
100
AcDbLine
 10
56.82663999999988
 20
90.57934000000022
 30
0.0
 11
58.87171000000001
 21
93.49999999999999
 31
0.0
  0
LWPOLYLINE
  5
13189
330
DE84
100
AcDbEntity
  8
0
100
AcDbPolyline
 90
        3
 70
     0
 43
0.0
 10
59.04999999999995
 20
89.5002400103308
 10
59.04999999999995
 20
90.05000000000018
 10
59.20136460265087
 20
90.05000000000018
  0
CIRCLE
  5
1318A
330
DE84
100
AcDbEntity
  8
0
100
AcDbCircle
 10
56.7270299999999
 20
95.52296999999999
 30
0.0
 40
0.9
  0
CIRCLE
  5
1318B
330
DE84
100
AcDbEntity
  8
0
100
AcDbCircle
 10
56.72703172698755
 20
95.52297327300493
 30
0.0
 40
0.525
  0
CIRCLE
  5
1318E
330
DE84
100
AcDbEntity
  8
0
100
AcDbCircle
 10
56.7270299999999
 20
95.52296999999999
 30
0.0
 40
1.25
  0
ARC
  5
1318F
330
DE84
100
AcDbEntity
  8
0
100
AcDbCircle
 10
61.49999999999988
 20
90.75000000000001
 30
0.0
 40
6.4
100
AcDbArc
 50
55.47531748501702
 51
124.5246825149829
  0
LWPOLYLINE
  5
13190
330
DE84
100
AcDbEntity
  8
0
100
AcDbPolyline
 90
        8
 70
     1
 43
0.0
 10
58.69999999999993
 20
93.50000000000022
 10
63.30000000000007
 20
93.50000000000022
 42
0.4142135623730951
 10
63.5
 20
93.70000000000004
 10
63.5
 20
95.80000000000017
 42
0.4142135623730895
 10
63.30000000000007
 20
96.00000000000022
 10
58.69999999999993
 20
96.00000000000022
 42
0.4142135623730951
 10
58.5
 20
95.80000000000017
 10
58.5
 20
93.70000000000004
 42
0.4142135623730951
  0
LWPOLYLINE
  5
13191
330
DE84
100
AcDbEntity
  8
0
100
AcDbPolyline
 90
        4
 70
     0
 43
0.0
 10
60.27430551888676
 20
90.05000000000018
 10
62.94999999999993
 20
90.05000000000018
 10
62.94999999999993
 20
88.45000000000004
 10
59.60828647054348
 20
88.45000000000004
  0
ARC
  5
13192
330
DE84
100
AcDbEntity
  8
0
100
AcDbCircle
 10
69.5
 20
96.75
 30
0.0
 40
0.5
100
AcDbArc
 50
0.0
 51
90.0
  0
ARC
  5
13193
330
DE84
100
AcDbEntity
  8
0
100
AcDbCircle
 10
69.5
 20
98.25000000000001
 30
0.0
 40
0.5
100
AcDbArc
 50
270.0
 51
0.0
  0
LINE
  5
13194
330
DE84
100
AcDbEntity
  8
0
100
AcDbLine
 10
69.5
 20
97.25000000000001
 30
0.0
 11
54.89999999999998
 21
97.25000000000001
 31
0.0
  0
LINE
  5
13195
330
DE84
100
AcDbEntity
  8
0
100
AcDbLine
 10
69.5
 20
97.75
 30
0.0
 11
54.89999999999998
 21
97.75
 31
0.0
  0
LINE
  5
13196
330
DE84
100
AcDbEntity
  8
0
100
AcDbLine
 10
73.35000000000002
 20
92.65000000000009
 30
0.0
 11
70.84862861262855
 21
92.65000000000009
 31
0.0
  0
LINE
  5
13197
330
DE84
100
AcDbEntity
  8
0
100
AcDbLine
 10
73.35000000000002
 20
88.85000000000013
 30
0.0
 11
70.84862861262855
 21
88.85000000000013
 31
0.0
  0
CIRCLE
  5
13198
330
DE84
100
AcDbEntity
  8
0
100
AcDbCircle
 10
72.14999999999998
 20
90.75000000000001
 30
0.0
 40
0.525
  0
LINE
  5
1319A
330
DE84
100
AcDbEntity
  8
0
100
AcDbLine
 10
73.35000000000002
 20
92.65000000000009
 30
0.0
 11
73.35000000000002
 21
88.85000000000013
 31
0.0
  0
ARC
  5
1319B
330
DE84
100
AcDbEntity
  8
0
100
AcDbCircle
 10
63.61696999999992
 20
102.98954
 30
0.0
 40
1.9
100
AcDbArc
 50
301.5601999999987
 51
34.99999999997888
  0
ARC
  5
1319C
330
DE84
100
AcDbEntity
  8
0
100
AcDbCircle
 10
61.49999999999988
 20
104.25
 30
0.0
 40
6.4
100
AcDbArc
 50
325.4753174849993
 51
34.52468251500071
  0
LINE
  5
1319D
330
DE84
100
AcDbEntity
  8
0
100
AcDbLine
 10
63.12828999999999
 20
107.0
 30
0.0
 11
65.17335999999989
 21
104.0793400000002
 31
0.0
  0
CIRCLE
  5
1319E
330
DE84
100
AcDbEntity
  8
0
100
AcDbCircle
 10
66.27297077300909
 20
109.0229707730093
 30
0.0
 40
0.525
  0
CIRCLE
  5
1319F
330
DE84
100
AcDbEntity
  8
0
100
AcDbCircle
 10
66.27296999999988
 20
109.02297
 30
0.0
 40
0.9
  0
CIRCLE
  5
131A2
330
DE84
100
AcDbEntity
  8
0
100
AcDbCircle
 10
66.27296999999988
 20
109.02297
 30
0.0
 40
1.25
  0
LINE
  5
131A3
330
DE84
100
AcDbEntity
  8
0
100
AcDbLine
 10
61.29810999999995
 20
106.00952
 30
0.0
 11
59.54637999999988
 21
101.8012800000001
 31
0.0
  0
LINE
  5
131A4
330
DE84
100
AcDbEntity
  8
0
100
AcDbLine
 10
59.46076000000005
 20
101.85734
 30
0.0
 11
60.87709999999993
 21
105.9713700000002
 31
0.0
  0
ARC
  5
131A5
330
DE84
100
AcDbEntity
  8
0
100
AcDbCircle
 10
58.38302999999996
 20
102.9895500000002
 30
0.0
 40
1.9
100
AcDbArc
 50
145.0000000000211
 51
238.4398000000013
  0
LINE
  5
131A6
330
DE84
100
AcDbEntity
  8
0
100
AcDbLine
 10
60.00144999999998
 20
106.4559300000001
 30
0.0
 11
58.79144999999994
 21
102.0611800000001
 31
0.0
  0
LINE
  5
131A7
330
DE84
100
AcDbEntity
  8
0
100
AcDbLine
 10
58.89343999999994
 20
102.0526500000001
 30
0.0
 11
60.30975999999999
 21
106.16669
 31
0.0
  0
ARC
  5
131A8
330
DE84
100
AcDbEntity
  8
0
100
AcDbCircle
 10
61.49999999999988
 20
104.25
 30
0.0
 40
6.4
100
AcDbArc
 50
145.4753174849993
 51
214.5245989381181
  0
ARC
  5
131A9
330
DE84
100
AcDbEntity
  8
0
100
AcDbCircle
 10
59.17708999999991
 20
101.9549900000002
 30
0.0
 40
0.3999992
100
AcDbArc
 50
164.6064000000118
 51
337.4001000000156
  0
ARC
  5
131AA
330
DE84
100
AcDbEntity
  8
0
100
AcDbCircle
 10
59.17708999999991
 20
101.9549900000002
 30
0.0
 40
0.3
100
AcDbArc
 50
161.0032999999807
 51
341.0032999999808
  0
ARC
  5
131AB
330
DE84
100
AcDbEntity
  8
0
100
AcDbCircle
 10
60.99999999999988
 20
107.25
 30
0.0
 40
1.1
100
AcDbArc
 50
300.0796000000176
 51
346.8633999999863
  0
ARC
  5
131AC
330
DE84
100
AcDbEntity
  8
0
100
AcDbCircle
 10
60.99999999999988
 20
107.25
 30
0.0
 40
0.9
100
AcDbArc
 50
289.6857000000052
 51
343.8724000000141
  0
ARC
  5
131AD
330
DE84
100
AcDbEntity
  8
0
100
AcDbCircle
 10
59.64788999999996
 20
106.3945499999999
 30
0.0
 40
0.7000000000000001
100
AcDbArc
 50
341.0031999999744
 51
32.32059000002235
  0
ARC
  5
131AE
330
DE84
100
AcDbEntity
  8
0
100
AcDbCircle
 10
59.42297999999993
 20
106.61519
 30
0.0
 40
0.6000000000000001
100
AcDbArc
 50
344.6062999999583
 51
21.92661000002215
  0
ARC
  5
131AF
330
DE84
100
AcDbEntity
  8
0
100
AcDbCircle
 10
60.99999999999988
 20
107.25
 30
0.0
 40
1.1
100
AcDbArc
 50
193.1369000000023
 51
201.9265999999987
  0
ARC
  5
131B0
330
DE84
100
AcDbEntity
  8
0
100
AcDbCircle
 10
60.99999999999988
 20
107.25
 30
0.0
 40
0.9
100
AcDbArc
 50
196.1279999999981
 51
212.3205999999899
  0
ARC
  5
131B1
330
DE84
100
AcDbEntity
  8
0
100
AcDbCircle
 10
61.85203999999988
 20
105.7789400000001
 30
0.0
 40
0.6000000000000001
100
AcDbArc
 50
120.0796000000176
 51
157.400000000022
  0
ARC
  5
131B2
330
DE84
100
AcDbEntity
  8
0
100
AcDbCircle
 10
61.53896999999995
 20
105.74352
 30
0.0
 40
0.7000000000000001
100
AcDbArc
 50
109.6855999999881
 51
161.0031000000165
  0
LINE
  5
131B3
330
DE84
100
AcDbEntity
  8
0
100
AcDbLine
 10
56.82663999999988
 20
104.0793400000002
 30
0.0
 11
58.87171000000001
 21
107.0
 31
0.0
  0
LWPOLYLINE
  5
131B4
330
DE84
100
AcDbEntity
  8
0
100
AcDbPolyline
 90
        3
 70
     0
 43
0.0
 10
59.04999999999995
 20
103.0002400103308
 10
59.04999999999995
 20
103.5500000000002
 10
59.20136460265087
 20
103.5500000000002
  0
CIRCLE
  5
131B5
330
DE84
100
AcDbEntity
  8
0
100
AcDbCircle
 10
56.7270299999999
 20
109.02297
 30
0.0
 40
0.9
  0
CIRCLE
  5
131B6
330
DE84
100
AcDbEntity
  8
0
100
AcDbCircle
 10
56.72703172698755
 20
109.0229732730049
 30
0.0
 40
0.525
  0
CIRCLE
  5
131B9
330
DE84
100
AcDbEntity
  8
0
100
AcDbCircle
 10
56.7270299999999
 20
109.02297
 30
0.0
 40
1.25
  0
ARC
  5
131BA
330
DE84
100
AcDbEntity
  8
0
100
AcDbCircle
 10
60.99999999999988
 20
107.25
 30
0.0
 40
6.899999
100
AcDbArc
 50
238.4398000000013
 51
301.5601999999987
  0
ARC
  5
131BB
330
DE84
100
AcDbEntity
  8
0
100
AcDbCircle
 10
61.49999999999988
 20
104.25
 30
0.0
 40
6.4
100
AcDbArc
 50
55.47531748501702
 51
124.5246825149829
  0
LWPOLYLINE
  5
131BC
330
DE84
100
AcDbEntity
  8
0
100
AcDbPolyline
 90
        8
 70
     1
 43
0.0
 10
58.69999999999993
 20
107.0000000000002
 10
63.30000000000007
 20
107.0000000000002
 42
0.4142135623730951
 10
63.5
 20
107.2
 10
63.5
 20
109.3000000000001
 42
0.4142135623730895
 10
63.30000000000007
 20
109.5000000000002
 10
58.69999999999993
 20
109.5000000000002
 42
0.4142135623730951
 10
58.5
 20
109.3000000000001
 10
58.5
 20
107.2
 42
0.4142135623730951
  0
LWPOLYLINE
  5
131BD
330
DE84
100
AcDbEntity
  8
0
100
AcDbPolyline
 90
        4
 70
     0
 43
0.0
 10
60.27430551888676
 20
103.5500000000002
 10
62.94999999999993
 20
103.5500000000002
 10
62.94999999999993
 20
101.95
 10
59.60828647054348
 20
101.95
  0
ARC
  5
131BE
330
DE84
100
AcDbEntity
  8
0
100
AcDbCircle
 10
69.5
 20
110.25
 30
0.0
 40
0.5
100
AcDbArc
 50
0.0
 51
90.0
  0
LINE
  5
131BF
330
DE84
100
AcDbEntity
  8
0
100
AcDbLine
 10
69.5
 20
110.75
 30
0.0
 11
54.89999999999998
 21
110.75
 31
0.0
  0
LINE
  5
131C0
330
DE84
100
AcDbEntity
  8
0
100
AcDbLine
 10
73.35000000000002
 20
106.1500000000001
 30
0.0
 11
70.84862861262855
 21
106.1500000000001
 31
0.0
  0
LINE
  5
131C1
330
DE84
100
AcDbEntity
  8
0
100
AcDbLine
 10
73.35000000000002
 20
102.3500000000001
 30
0.0
 11
70.84862861262855
 21
102.3500000000001
 31
0.0
  0
CIRCLE
  5
131C2
330
DE84
100
AcDbEntity
  8
0
100
AcDbCircle
 10
72.14999999999998
 20
104.25
 30
0.0
 40
0.525
  0
LINE
  5
131C4
330
DE84
100
AcDbEntity
  8
0
100
AcDbLine
 10
73.35000000000002
 20
106.1500000000001
 30
0.0
 11
73.35000000000002
 21
102.3500000000001
 31
0.0
  0
ARC
  5
132A4
330
DE84
100
AcDbEntity
  8
0
100
AcDbCircle
 10
20.29666218387376
 20
118.9786426992132
 30
0.0
 40
1.0
100
AcDbArc
 50
315.0
 51
25.96855907488479
  0
CIRCLE
  5
132A5
330
DE84
100
AcDbEntity
  8
0
100
AcDbCircle
 10
21.37347583639746
 20
116.8734758363976
 30
0.0
 40
0.525
  0
CIRCLE
  5
132A6
330
DE84
100
AcDbEntity
  8
0
100
AcDbCircle
 10
21.37347583639746
 20
127.1265241636026
 30
0.0
 40
0.525
  0
ARC
  5
132A7
330
DE84
100
AcDbEntity
  8
0
100
AcDbCircle
 10
20.29666218387376
 20
125.0213573007868
 30
0.0
 40
1.0
100
AcDbArc
 50
334.0314409251152
 51
45.0
  0
LINE
  5
132A8
330
DE84
100
AcDbEntity
  8
0
100
AcDbLine
 10
17.0
 20
113.0
 30
0.0
 11
30.5
 21
113.0
 31
0.0
  0
ARC
  5
132A9
330
DE84
100
AcDbEntity
  8
0
100
AcDbCircle
 10
21.37347583639746
 20
116.8734758363976
 30
0.0
 40
1.25
100
AcDbArc
 50
135.0
 51
315.0
  0
CIRCLE
  5
132AA
330
DE84
100
AcDbEntity
  8
0
100
AcDbCircle
 10
21.37347583639746
 20
116.8734758363976
 30
0.0
 40
0.9
  0
ARC
  5
132AE
330
DE84
100
AcDbEntity
  8
0
100
AcDbCircle
 10
21.37347583639746
 20
127.1265241636026
 30
0.0
 40
1.25
100
AcDbArc
 50
45.0
 51
225.0
  0
CIRCLE
  5
132B0
330
DE84
100
AcDbEntity
  8
0
100
AcDbCircle
 10
21.37347583639746
 20
127.1265241636026
 30
0.0
 40
0.9
  0
LINE
  5
132B2
330
DE84
100
AcDbEntity
  8
0
100
AcDbLine
 10
17.80000000000007
 20
132.0
 30
0.0
 11
62.19999999999993
 21
132.0
 31
0.0
  0
LINE
  5
132B3
330
DE84
100
AcDbEntity
  8
0
100
AcDbLine
 10
62.5
 20
130.3738635424338
 30
0.0
 11
17.50000000000011
 21
130.3738635424338
 31
0.0
  0
ARC
  5
132B5
330
DE84
100
AcDbEntity
  8
0
100
AcDbCircle
 10
7.850000000000022
 20
134.5
 30
0.0
 40
0.7000000000000001
100
AcDbArc
 50
180.0
 51
0.0
  0
LINE
  5
132B6
330
DE84
100
AcDbEntity
  8
0
100
AcDbLine
 10
9.75
 20
137.1000000000001
 30
0.0
 11
9.75
 21
123.9000000000001
 31
0.0
  0
ARC
  5
132B7
330
DE84
100
AcDbEntity
  8
0
100
AcDbCircle
 10
26.5
 20
122.0
 30
0.0
 40
6.75
100
AcDbArc
 50
150.1736275039398
 51
209.8263724960601
  0
ARC
  5
132B8
330
DE84
100
AcDbEntity
  8
0
100
AcDbCircle
 10
26.5
 20
122.0
 30
0.0
 40
5.9
100
AcDbArc
 50
154.0314409251152
 51
205.9685590748848
  0
LINE
  5
132B9
330
DE84
100
AcDbEntity
  8
0
100
AcDbLine
 10
6.050000000000068
 20
120.1000000000001
 30
0.0
 11
6.050000000000068
 21
123.9000000000001
 31
0.0
  0
LINE
  5
132BB
330
DE84
100
AcDbEntity
  8
0
100
AcDbLine
 10
16.5
 20
130.5
 30
0.0
 11
16.5
 21
113.5
 31
0.0
  0
ARC
  5
132BC
330
DE84
100
AcDbEntity
  8
0
100
AcDbCircle
 10
66.0
 20
122.0
 30
0.0
 40
50.0
100
AcDbArc
 50
171.890385544004
 51
188.1096144559959
  0
LINE
  5
132BD
330
DE84
100
AcDbEntity
  8
0
100
AcDbLine
 10
20.48959235991436
 20
117.7573593128809
 30
0.0
 11
21.0037689650602
 21
118.2715359180267
 31
0.0
  0
ARC
  5
132BE
330
DE84
100
AcDbEntity
  8
0
100
AcDbCircle
 10
20.03685224913181
 20
118.2945686957594
 30
0.0
 40
0.7000000000000001
100
AcDbArc
 50
315.0
 51
29.82637249606012
  0
ARC
  5
132BF
330
DE84
100
AcDbEntity
  8
0
100
AcDbCircle
 10
17.0
 20
113.5
 30
0.0
 40
0.5
100
AcDbArc
 50
180.0
 51
270.0
  0
CIRCLE
  5
132C1
330
DE84
100
AcDbEntity
  8
0
100
AcDbCircle
 10
7.850000000000022
 20
122.0
 30
0.0
 40
0.65
  0
LINE
  5
132C2
330
DE84
100
AcDbEntity
  8
0
100
AcDbLine
 10
6.050000000000068
 20
120.1000000000001
 30
0.0
 11
16.03611304151775
 21
120.1000000000001
 31
0.0
  0
ARC
  5
132C3
330
DE84
100
AcDbEntity
  8
0
100
AcDbCircle
 10
17.0
 20
131.5
 30
0.0
 40
0.5
100
AcDbArc
 50
270.0
 51
0.0
  0
LINE
  5
132C4
330
DE84
100
AcDbEntity
  8
0
100
AcDbLine
 10
17.5
 20
131.7
 30
0.0
 11
17.50000000000011
 21
130.8738635424338
 31
0.0
  0
ARC
  5
132C5
330
DE84
100
AcDbEntity
  8
0
100
AcDbCircle
 10
17.0
 20
130.5
 30
0.0
 40
0.5
100
AcDbArc
 50
90.0
 51
180.0
  0
ARC
  5
132C6
330
DE84
100
AcDbEntity
  8
0
100
AcDbCircle
 10
17.0
 20
130.8738635424338
 30
0.0
 40
0.5
100
AcDbArc
 50
270.0
 51
0.0
  0
ARC
  5
132C7
330
DE84
100
AcDbEntity
  8
0
100
AcDbCircle
 10
17.79999999999995
 20
131.7
 30
0.0
 40
0.3
100
AcDbArc
 50
90.0
 51
180.0
  0
LINE
  5
132C8
330
DE84
100
AcDbEntity
  8
0
100
AcDbLine
 10
20.48959235991436
 20
126.2426406871193
 30
0.0
 11
21.0037689650602
 21
125.7284640819734
 31
0.0
  0
ARC
  5
132C9
330
DE84
100
AcDbEntity
  8
0
100
AcDbCircle
 10
20.0368522491317
 20
125.7054313042408
 30
0.0
 40
0.7000000000000001
100
AcDbArc
 50
330.1736275039399
 51
45.0
  0
LINE
  5
132CA
330
DE84
100
AcDbEntity
  8
0
100
AcDbLine
 10
6.050000000000068
 20
123.9000000000001
 30
0.0
 11
16.03611304151775
 21
123.9000000000001
 31
0.0
  0
LINE
  5
132CB
330
DE84
100
AcDbEntity
  8
0
100
AcDbLine
 10
5.949999999999931
 20
137.1000000000001
 30
0.0
 11
6.850000000000022
 21
138.0
 31
0.0
  0
LINE
  5
132CD
330
DE84
100
AcDbEntity
  8
0
100
AcDbLine
 10
6.850000000000022
 20
138.0
 30
0.0
 11
8.850000000000022
 21
138.0
 31
0.0
  0
ARC
  5
132CE
330
DE84
100
AcDbEntity
  8
0
100
AcDbCircle
 10
7.850000000000022
 20
135.5
 30
0.0
 40
0.7000000000000001
100
AcDbArc
 50
0.0
 51
180.0
  0
LINE
  5
132CF
330
DE84
100
AcDbEntity
  8
0
100
AcDbLine
 10
7.149999999999977
 20
135.5
 30
0.0
 11
7.149999999999977
 21
134.5
 31
0.0
  0
LINE
  5
132D0
330
DE84
100
AcDbEntity
  8
0
100
AcDbLine
 10
8.550000000000068
 20
135.5
 30
0.0
 11
8.550000000000068
 21
134.5
 31
0.0
  0
LINE
  5
132D1
330
DE84
100
AcDbEntity
  8
0
100
AcDbLine
 10
8.850000000000022
 20
138.0
 30
0.0
 11
9.75
 21
137.1000000000001
 31
0.0
  0
ARC
  5
132D2
330
DE84
100
AcDbEntity
  8
0
100
AcDbCircle
 10
72.14999999999998
 20
134.5
 30
0.0
 40
0.7000000000000001
100
AcDbArc
 50
180.0
 51
0.0
  0
LINE
  5
132D4
330
DE84
100
AcDbEntity
  8
0
100
AcDbLine
 10
70.25
 20
137.1000000000001
 30
0.0
 11
70.25
 21
123.9000000000001
 31
0.0
  0
ARC
  5
132D5
330
DE84
100
AcDbEntity
  8
0
100
AcDbCircle
 10
53.5
 20
122.0
 30
0.0
 40
6.75
100
AcDbArc
 50
60.17362750393998
 51
119.82637249606
  0
CIRCLE
  5
132D6
330
DE84
100
AcDbEntity
  8
0
100
AcDbCircle
 10
53.5
 20
122.0
 30
0.0
 40
4.75
  0
LINE
  5
132D7
330
DE84
100
AcDbEntity
  8
0
100
AcDbLine
 10
49.5
 20
113.0
 30
0.0
 11
63.0
 21
113.0
 31
0.0
  0
ARC
  5
132D8
330
DE84
100
AcDbEntity
  8
0
100
AcDbCircle
 10
53.5
 20
122.0
 30
0.0
 40
6.75
100
AcDbArc
 50
240.17362750394
 51
299.82637249606
  0
ARC
  5
132D9
330
DE84
100
AcDbEntity
  8
0
100
AcDbCircle
 10
53.5
 20
122.0
 30
0.0
 40
5.9
100
AcDbArc
 50
244.0314409251154
 51
295.9685590748846
  0
ARC
  5
132DA
330
DE84
100
AcDbEntity
  8
0
100
AcDbCircle
 10
53.5
 20
122.0
 30
0.0
 40
5.9
100
AcDbArc
 50
64.03144092511539
 51
115.9685590748846
  0
ARC
  5
132DC
330
DE84
100
AcDbEntity
  8
0
100
AcDbCircle
 10
40.0
 20
122.0
 30
0.0
 40
5.9
100
AcDbArc
 50
154.0314409251152
 51
205.9685590748848
  0
ARC
  5
132DD
330
DE84
100
AcDbEntity
  8
0
100
AcDbCircle
 10
40.0
 20
122.0
 30
0.0
 40
6.75
100
AcDbArc
 50
150.1736275039398
 51
209.8263724960601
  0
ARC
  5
132DE
330
DE84
100
AcDbEntity
  8
0
100
AcDbCircle
 10
26.5
 20
122.0
 30
0.0
 40
5.9
100
AcDbArc
 50
334.0314409251152
 51
25.96855907488479
  0
ARC
  5
132DF
330
DE84
100
AcDbEntity
  8
0
100
AcDbCircle
 10
26.5
 20
122.0
 30
0.0
 40
6.75
100
AcDbArc
 50
330.1736275039399
 51
29.82637249606012
  0
CIRCLE
  5
132E0
330
DE84
100
AcDbEntity
  8
0
100
AcDbCircle
 10
40.0
 20
122.0
 30
0.0
 40
4.75
  0
ARC
  5
132E1
330
DE84
100
AcDbEntity
  8
0
100
AcDbCircle
 10
53.5
 20
122.0
 30
0.0
 40
6.75
100
AcDbArc
 50
150.1736275039398
 51
209.8263724960601
  0
ARC
  5
132E2
330
DE84
100
AcDbEntity
  8
0
100
AcDbCircle
 10
40.0
 20
122.0
 30
0.0
 40
5.9
100
AcDbArc
 50
334.0314409251152
 51
25.96855907488479
  0
ARC
  5
132E3
330
DE84
100
AcDbEntity
  8
0
100
AcDbCircle
 10
40.0
 20
122.0
 30
0.0
 40
6.75
100
AcDbArc
 50
330.1736275039399
 51
29.82637249606012
  0
CIRCLE
  5
132E4
330
DE84
100
AcDbEntity
  8
0
100
AcDbCircle
 10
26.5
 20
122.0
 30
0.0
 40
4.75
  0
ARC
  5
132E6
330
DE84
100
AcDbEntity
  8
0
100
AcDbCircle
 10
53.5
 20
122.0
 30
0.0
 40
5.9
100
AcDbArc
 50
154.0314409251152
 51
205.9685590748848
  0
ARC
  5
132E9
330
DE84
100
AcDbEntity
  8
0
100
AcDbCircle
 10
40.0
 20
122.0
 30
0.0
 40
6.75
100
AcDbArc
 50
240.17362750394
 51
299.82637249606
  0
ARC
  5
132EA
330
DE84
100
AcDbEntity
  8
0
100
AcDbCircle
 10
40.0
 20
122.0
 30
0.0
 40
5.9
100
AcDbArc
 50
244.0314409251154
 51
295.9685590748846
  0
ARC
  5
132EC
330
DE84
100
AcDbEntity
  8
0
100
AcDbCircle
 10
33.53685224913181
 20
118.2945686957594
 30
0.0
 40
0.7000000000000001
100
AcDbArc
 50
315.0
 51
29.82637249606012
  0
ARC
  5
132ED
330
DE84
100
AcDbEntity
  8
0
100
AcDbCircle
 10
33.79666218387376
 20
118.9786426992132
 30
0.0
 40
1.0
100
AcDbArc
 50
315.0
 51
25.96855907488479
  0
ARC
  5
132EE
330
DE84
100
AcDbEntity
  8
0
100
AcDbCircle
 10
32.96314775086819
 20
118.2945686957594
 30
0.0
 40
0.7000000000000001
100
AcDbArc
 50
150.1736275039398
 51
225.0
  0
ARC
  5
132EF
330
DE84
100
AcDbEntity
  8
0
100
AcDbCircle
 10
32.70333781612624
 20
118.9786426992132
 30
0.0
 40
1.0
100
AcDbArc
 50
154.0314409251152
 51
225.0
  0
LINE
  5
132F0
330
DE84
100
AcDbEntity
  8
0
100
AcDbLine
 10
33.98959235991436
 20
117.7573593128809
 30
0.0
 11
34.5037689650602
 21
118.2715359180267
 31
0.0
  0
CIRCLE
  5
132F1
330
DE84
100
AcDbEntity
  8
0
100
AcDbCircle
 10
31.62652416360254
 20
116.8734758363976
 30
0.0
 40
0.525
  0
LINE
  5
132F2
330
DE84
100
AcDbEntity
  8
0
100
AcDbLine
 10
32.51040764008565
 20
117.7573593128809
 30
0.0
 11
31.9962310349398
 21
118.2715359180267
 31
0.0
  0
CIRCLE
  5
132F3
330
DE84
100
AcDbEntity
  8
0
100
AcDbCircle
 10
34.87347583639746
 20
116.8734758363976
 30
0.0
 40
0.525
  0
ARC
  5
132F4
330
DE84
100
AcDbEntity
  8
0
100
AcDbCircle
 10
36.9786426992132
 20
115.7966621838738
 30
0.0
 40
1.0
100
AcDbArc
 50
64.03144092511539
 51
135.0
  0
ARC
  5
132F5
330
DE84
100
AcDbEntity
  8
0
100
AcDbCircle
 10
23.4786426992132
 20
115.7966621838738
 30
0.0
 40
1.0
100
AcDbArc
 50
64.03144092511539
 51
135.0
  0
ARC
  5
132F6
330
DE84
100
AcDbEntity
  8
0
100
AcDbCircle
 10
29.5213573007868
 20
115.7966621838738
 30
0.0
 40
1.0
100
AcDbArc
 50
45.0
 51
115.9685590748846
  0
ARC
  5
132F7
330
DE84
100
AcDbEntity
  8
0
100
AcDbCircle
 10
26.5
 20
122.0
 30
0.0
 40
6.75
100
AcDbArc
 50
240.17362750394
 51
299.82637249606
  0
LINE
  5
132F8
330
DE84
100
AcDbEntity
  8
0
100
AcDbLine
 10
31.0
 20
113.0
 30
0.0
 11
33.01999999999998
 21
115.02
 31
0.0
  0
ARC
  5
132F9
330
DE84
100
AcDbEntity
  8
0
100
AcDbCircle
 10
30.5
 20
112.5
 30
0.0
 40
0.5
100
AcDbArc
 50
0.0
 51
90.0
  0
ARC
  5
132FA
330
DE84
100
AcDbEntity
  8
0
100
AcDbCircle
 10
26.5
 20
122.0
 30
0.0
 40
5.9
100
AcDbArc
 50
244.0314409251154
 51
295.9685590748846
  0
ARC
  5
132FB
330
DE84
100
AcDbEntity
  8
0
100
AcDbCircle
 10
22.79456869575927
 20
115.5368522491319
 30
0.0
 40
0.7000000000000001
100
AcDbArc
 50
60.17362750393998
 51
135.0
  0
LINE
  5
132FC
330
DE84
100
AcDbEntity
  8
0
100
AcDbLine
 10
22.25735931288079
 20
115.9895923599144
 30
0.0
 11
22.77153591802664
 21
116.5037689650603
 31
0.0
  0
CIRCLE
  5
132FD
330
DE84
100
AcDbEntity
  8
0
100
AcDbCircle
 10
31.62652416360254
 20
116.8734758363976
 30
0.0
 40
0.9
  0
LINE
  5
13300
330
DE84
100
AcDbEntity
  8
0
100
AcDbLine
 10
30.74264068711921
 20
115.9895923599144
 30
0.0
 11
30.22846408197336
 21
116.5037689650603
 31
0.0
  0
ARC
  5
13301
330
DE84
100
AcDbEntity
  8
0
100
AcDbCircle
 10
30.20543130424062
 20
115.5368522491319
 30
0.0
 40
0.7000000000000001
100
AcDbArc
 50
45.0
 51
119.82637249606
  0
ARC
  5
13302
330
DE84
100
AcDbEntity
  8
0
100
AcDbCircle
 10
31.62652416360254
 20
116.8734758363976
 30
0.0
 40
1.25
100
AcDbArc
 50
225.0
 51
45.0
  0
CIRCLE
  5
13303
330
DE84
100
AcDbEntity
  8
0
100
AcDbCircle
 10
34.87347583639746
 20
116.8734758363976
 30
0.0
 40
0.9
  0
ARC
  5
13306
330
DE84
100
AcDbEntity
  8
0
100
AcDbCircle
 10
34.87347583639746
 20
116.8734758363976
 30
0.0
 40
1.25
100
AcDbArc
 50
135.0
 51
315.0
  0
LINE
  5
13307
330
DE84
100
AcDbEntity
  8
0
100
AcDbLine
 10
35.75735931288079
 20
115.9895923599144
 30
0.0
 11
36.27153591802664
 21
116.5037689650603
 31
0.0
  0
ARC
  5
13308
330
DE84
100
AcDbEntity
  8
0
100
AcDbCircle
 10
36.29456869575927
 20
115.5368522491319
 30
0.0
 40
0.7000000000000001
100
AcDbArc
 50
60.17362750393998
 51
135.0
  0
ARC
  5
1330A
330
DE84
100
AcDbEntity
  8
0
100
AcDbCircle
 10
50.47864269921319
 20
115.7966621838738
 30
0.0
 40
1.0
100
AcDbArc
 50
64.03144092511539
 51
135.0
  0
ARC
  5
1330B
330
DE84
100
AcDbEntity
  8
0
100
AcDbCircle
 10
47.29666218387376
 20
118.9786426992132
 30
0.0
 40
1.0
100
AcDbArc
 50
315.0
 51
25.96855907488479
  0
ARC
  5
1330C
330
DE84
100
AcDbEntity
  8
0
100
AcDbCircle
 10
49.5
 20
112.5
 30
0.0
 40
0.5
100
AcDbArc
 50
90.0
 51
180.0
  0
LINE
  5
1330D
330
DE84
100
AcDbEntity
  8
0
100
AcDbLine
 10
49.25735931288079
 20
115.9895923599144
 30
0.0
 11
49.77153591802665
 21
116.5037689650603
 31
0.0
  0
ARC
  5
1330E
330
DE84
100
AcDbEntity
  8
0
100
AcDbCircle
 10
49.79456869575926
 20
115.5368522491319
 30
0.0
 40
0.7000000000000001
100
AcDbArc
 50
60.17362750393998
 51
135.0
  0
ARC
  5
1330F
330
DE84
100
AcDbEntity
  8
0
100
AcDbCircle
 10
47.03685224913181
 20
118.2945686957594
 30
0.0
 40
0.7000000000000001
100
AcDbArc
 50
315.0
 51
29.82637249606012
  0
ARC
  5
13310
330
DE84
100
AcDbEntity
  8
0
100
AcDbCircle
 10
46.20333781612623
 20
118.9786426992132
 30
0.0
 40
1.0
100
AcDbArc
 50
154.0314409251152
 51
225.0
  0
ARC
  5
13311
330
DE84
100
AcDbEntity
  8
0
100
AcDbCircle
 10
46.46314775086819
 20
118.2945686957594
 30
0.0
 40
0.7000000000000001
100
AcDbArc
 50
150.1736275039398
 51
225.0
  0
LINE
  5
13312
330
DE84
100
AcDbEntity
  8
0
100
AcDbLine
 10
46.01040764008565
 20
117.7573593128809
 30
0.0
 11
45.4962310349398
 21
118.2715359180267
 31
0.0
  0
ARC
  5
13313
330
DE84
100
AcDbEntity
  8
0
100
AcDbCircle
 10
43.0213573007868
 20
115.7966621838738
 30
0.0
 40
1.0
100
AcDbArc
 50
45.0
 51
115.9685590748846
  0
CIRCLE
  5
13314
330
DE84
100
AcDbEntity
  8
0
100
AcDbCircle
 10
45.12652416360253
 20
116.8734758363976
 30
0.0
 40
0.525
  0
CIRCLE
  5
13316
330
DE84
100
AcDbEntity
  8
0
100
AcDbCircle
 10
45.12652416360253
 20
116.8734758363976
 30
0.0
 40
0.9
  0
ARC
  5
13317
330
DE84
100
AcDbEntity
  8
0
100
AcDbCircle
 10
45.12652416360253
 20
116.8734758363976
 30
0.0
 40
1.25
100
AcDbArc
 50
225.0
 51
45.0
  0
LINE
  5
1331A
330
DE84
100
AcDbEntity
  8
0
100
AcDbLine
 10
44.2426406871192
 20
115.9895923599144
 30
0.0
 11
43.72846408197335
 21
116.5037689650603
 31
0.0
  0
ARC
  5
1331B
330
DE84
100
AcDbEntity
  8
0
100
AcDbCircle
 10
43.70543130424062
 20
115.5368522491319
 30
0.0
 40
0.7000000000000001
100
AcDbArc
 50
45.0
 51
119.82637249606
  0
ARC
  5
1331C
330
DE84
100
AcDbEntity
  8
0
100
AcDbCircle
 10
48.37347583639746
 20
116.8734758363976
 30
0.0
 40
1.25
100
AcDbArc
 50
135.0
 51
315.0
  0
CIRCLE
  5
1331D
330
DE84
100
AcDbEntity
  8
0
100
AcDbCircle
 10
48.37347583639746
 20
116.8734758363976
 30
0.0
 40
0.9
  0
LINE
  5
13320
330
DE84
100
AcDbEntity
  8
0
100
AcDbLine
 10
49.0
 20
113.0
 30
0.0
 11
46.9799999999999
 21
115.02
 31
0.0
  0
LINE
  5
13321
330
DE84
100
AcDbEntity
  8
0
100
AcDbLine
 10
47.48959235991435
 20
117.7573593128809
 30
0.0
 11
48.0037689650602
 21
118.2715359180267
 31
0.0
  0
CIRCLE
  5
13322
330
DE84
100
AcDbEntity
  8
0
100
AcDbCircle
 10
48.37347583639746
 20
116.8734758363976
 30
0.0
 40
0.525
  0
ARC
  5
13323
330
DE84
100
AcDbEntity
  8
0
100
AcDbCircle
 10
40.0
 20
122.0
 30
0.0
 40
6.75
100
AcDbArc
 50
60.17362750393998
 51
119.82637249606
  0
ARC
  5
13324
330
DE84
100
AcDbEntity
  8
0
100
AcDbCircle
 10
40.0
 20
122.0
 30
0.0
 40
5.9
100
AcDbArc
 50
64.03144092511539
 51
115.9685590748846
  0
ARC
  5
13325
330
DE84
100
AcDbEntity
  8
0
100
AcDbCircle
 10
26.5
 20
122.0
 30
0.0
 40
6.75
100
AcDbArc
 50
60.17362750393998
 51
119.82637249606
  0
CIRCLE
  5
13326
330
DE84
100
AcDbEntity
  8
0
100
AcDbCircle
 10
31.62652416360254
 20
127.1265241636026
 30
0.0
 40
0.525
  0
ARC
  5
13327
330
DE84
100
AcDbEntity
  8
0
100
AcDbCircle
 10
33.79666218387376
 20
125.0213573007868
 30
0.0
 40
1.0
100
AcDbArc
 50
334.0314409251152
 51
45.0
  0
ARC
  5
13328
330
DE84
100
AcDbEntity
  8
0
100
AcDbCircle
 10
33.5368522491317
 20
125.7054313042408
 30
0.0
 40
0.7000000000000001
100
AcDbArc
 50
330.1736275039399
 51
45.0
  0
LINE
  5
13329
330
DE84
100
AcDbEntity
  8
0
100
AcDbLine
 10
33.98959235991436
 20
126.2426406871193
 30
0.0
 11
34.5037689650602
 21
125.7284640819734
 31
0.0
  0
ARC
  5
1332A
330
DE84
100
AcDbEntity
  8
0
100
AcDbCircle
 10
32.70333781612624
 20
125.0213573007868
 30
0.0
 40
1.0
100
AcDbArc
 50
135.0
 51
205.9685590748848
  0
ARC
  5
1332B
330
DE84
100
AcDbEntity
  8
0
100
AcDbCircle
 10
32.96314775086819
 20
125.7054313042408
 30
0.0
 40
0.7000000000000001
100
AcDbArc
 50
135.0
 51
209.8263724960601
  0
LINE
  5
1332C
330
DE84
100
AcDbEntity
  8
0
100
AcDbLine
 10
32.51040764008565
 20
126.2426406871193
 30
0.0
 11
31.9962310349398
 21
125.7284640819734
 31
0.0
  0
CIRCLE
  5
1332D
330
DE84
100
AcDbEntity
  8
0
100
AcDbCircle
 10
34.87347583639746
 20
127.1265241636026
 30
0.0
 40
0.525
  0
ARC
  5
1332E
330
DE84
100
AcDbEntity
  8
0
100
AcDbCircle
 10
36.9786426992132
 20
128.2033378161263
 30
0.0
 40
1.0
100
AcDbArc
 50
225.0
 51
295.9685590748846
  0
ARC
  5
1332F
330
DE84
100
AcDbEntity
  8
0
100
AcDbCircle
 10
23.4786426992132
 20
128.2033378161263
 30
0.0
 40
1.0
100
AcDbArc
 50
225.0
 51
295.9685590748846
  0
ARC
  5
13330
330
DE84
100
AcDbEntity
  8
0
100
AcDbCircle
 10
29.5213573007868
 20
128.2033378161263
 30
0.0
 40
1.0
100
AcDbArc
 50
244.0314409251154
 51
315.0
  0
ARC
  5
13331
330
DE84
100
AcDbEntity
  8
0
100
AcDbCircle
 10
26.5
 20
122.0
 30
0.0
 40
5.9
100
AcDbArc
 50
64.03144092511539
 51
115.9685590748846
  0
ARC
  5
13332
330
DE84
100
AcDbEntity
  8
0
100
AcDbCircle
 10
22.79456869575927
 20
128.4631477508683
 30
0.0
 40
0.7000000000000001
100
AcDbArc
 50
225.0
 51
299.82637249606
  0
LINE
  5
13333
330
DE84
100
AcDbEntity
  8
0
100
AcDbLine
 10
22.25735931288079
 20
128.0104076400857
 30
0.0
 11
22.77153591802664
 21
127.4962310349399
 31
0.0
  0
CIRCLE
  5
13334
330
DE84
100
AcDbEntity
  8
0
100
AcDbCircle
 10
31.62652416360254
 20
127.1265241636026
 30
0.0
 40
0.9
  0
ARC
  5
13337
330
DE84
100
AcDbEntity
  8
0
100
AcDbCircle
 10
31.62652416360254
 20
127.1265241636026
 30
0.0
 40
1.25
100
AcDbArc
 50
315.0
 51
135.0
  0
LINE
  5
13338
330
DE84
100
AcDbEntity
  8
0
100
AcDbLine
 10
30.74264068711921
 20
128.0104076400857
 30
0.0
 11
30.22846408197336
 21
127.4962310349399
 31
0.0
  0
ARC
  5
13339
330
DE84
100
AcDbEntity
  8
0
100
AcDbCircle
 10
30.20543130424062
 20
128.4631477508683
 30
0.0
 40
0.7000000000000001
100
AcDbArc
 50
240.17362750394
 51
315.0
  0
ARC
  5
1333A
330
DE84
100
AcDbEntity
  8
0
100
AcDbCircle
 10
34.87347583639746
 20
127.1265241636026
 30
0.0
 40
1.25
100
AcDbArc
 50
45.0
 51
225.0
  0
CIRCLE
  5
1333B
330
DE84
100
AcDbEntity
  8
0
100
AcDbCircle
 10
34.87347583639746
 20
127.1265241636026
 30
0.0
 40
0.9
  0
LINE
  5
1333E
330
DE84
100
AcDbEntity
  8
0
100
AcDbLine
 10
35.75735931288079
 20
128.0104076400857
 30
0.0
 11
36.27153591802664
 21
127.4962310349399
 31
0.0
  0
ARC
  5
1333F
330
DE84
100
AcDbEntity
  8
0
100
AcDbCircle
 10
36.29456869575927
 20
128.4631477508683
 30
0.0
 40
0.7000000000000001
100
AcDbArc
 50
225.0
 51
299.82637249606
  0
ARC
  5
13340
330
DE84
100
AcDbEntity
  8
0
100
AcDbCircle
 10
50.47864269921319
 20
128.2033378161263
 30
0.0
 40
1.0
100
AcDbArc
 50
225.0
 51
295.9685590748846
  0
ARC
  5
13341
330
DE84
100
AcDbEntity
  8
0
100
AcDbCircle
 10
47.29666218387376
 20
125.0213573007868
 30
0.0
 40
1.0
100
AcDbArc
 50
334.0314409251152
 51
45.0
  0
LINE
  5
13342
330
DE84
100
AcDbEntity
  8
0
100
AcDbLine
 10
49.25735931288079
 20
128.0104076400857
 30
0.0
 11
49.77153591802665
 21
127.4962310349399
 31
0.0
  0
ARC
  5
13343
330
DE84
100
AcDbEntity
  8
0
100
AcDbCircle
 10
49.79456869575926
 20
128.4631477508683
 30
0.0
 40
0.7000000000000001
100
AcDbArc
 50
225.0
 51
299.82637249606
  0
LINE
  5
13344
330
DE84
100
AcDbEntity
  8
0
100
AcDbLine
 10
46.01040764008565
 20
126.2426406871193
 30
0.0
 11
45.4962310349398
 21
125.7284640819734
 31
0.0
  0
ARC
  5
13345
330
DE84
100
AcDbEntity
  8
0
100
AcDbCircle
 10
46.20333781612623
 20
125.0213573007868
 30
0.0
 40
1.0
100
AcDbArc
 50
135.0
 51
205.9685590748848
  0
ARC
  5
13346
330
DE84
100
AcDbEntity
  8
0
100
AcDbCircle
 10
47.03685224913169
 20
125.7054313042408
 30
0.0
 40
0.7000000000000001
100
AcDbArc
 50
330.1736275039399
 51
45.0
  0
ARC
  5
13347
330
DE84
100
AcDbEntity
  8
0
100
AcDbCircle
 10
46.46314775086819
 20
125.7054313042408
 30
0.0
 40
0.7000000000000001
100
AcDbArc
 50
135.0
 51
209.8263724960601
  0
ARC
  5
13348
330
DE84
100
AcDbEntity
  8
0
100
AcDbCircle
 10
43.0213573007868
 20
128.2033378161263
 30
0.0
 40
1.0
100
AcDbArc
 50
244.0314409251154
 51
315.0
  0
CIRCLE
  5
13349
330
DE84
100
AcDbEntity
  8
0
100
AcDbCircle
 10
45.12652416360253
 20
127.1265241636026
 30
0.0
 40
0.525
  0
CIRCLE
  5
1334A
330
DE84
100
AcDbEntity
  8
0
100
AcDbCircle
 10
45.12652416360253
 20
127.1265241636026
 30
0.0
 40
0.9
  0
ARC
  5
1334D
330
DE84
100
AcDbEntity
  8
0
100
AcDbCircle
 10
45.12652416360253
 20
127.1265241636026
 30
0.0
 40
1.25
100
AcDbArc
 50
315.0
 51
135.0
  0
LINE
  5
1334E
330
DE84
100
AcDbEntity
  8
0
100
AcDbLine
 10
44.2426406871192
 20
128.0104076400857
 30
0.0
 11
43.72846408197335
 21
127.4962310349399
 31
0.0
  0
ARC
  5
1334F
330
DE84
100
AcDbEntity
  8
0
100
AcDbCircle
 10
43.70543130424062
 20
128.4631477508683
 30
0.0
 40
0.7000000000000001
100
AcDbArc
 50
240.17362750394
 51
315.0
  0
ARC
  5
13350
330
DE84
100
AcDbEntity
  8
0
100
AcDbCircle
 10
48.37347583639746
 20
127.1265241636026
 30
0.0
 40
1.25
100
AcDbArc
 50
45.0
 51
225.0
  0
CIRCLE
  5
13351
330
DE84
100
AcDbEntity
  8
0
100
AcDbCircle
 10
48.37347583639746
 20
127.1265241636026
 30
0.0
 40
0.9
  0
LINE
  5
13354
330
DE84
100
AcDbEntity
  8
0
100
AcDbLine
 10
47.48959235991435
 20
126.2426406871193
 30
0.0
 11
48.0037689650602
 21
125.7284640819734
 31
0.0
  0
CIRCLE
  5
13355
330
DE84
100
AcDbEntity
  8
0
100
AcDbCircle
 10
48.37347583639746
 20
127.1265241636026
 30
0.0
 40
0.525
  0
LINE
  5
13356
330
DE84
100
AcDbEntity
  8
0
100
AcDbLine
 10
73.94999999999993
 20
120.1000000000001
 30
0.0
 11
73.94999999999993
 21
123.9000000000001
 31
0.0
  0
ARC
  5
13358
330
DE84
100
AcDbEntity
  8
0
100
AcDbCircle
 10
53.5
 20
122.0
 30
0.0
 40
5.9
100
AcDbArc
 50
334.0314409251152
 51
25.96855907488479
  0
ARC
  5
13359
330
DE84
100
AcDbEntity
  8
0
100
AcDbCircle
 10
53.5
 20
122.0
 30
0.0
 40
6.75
100
AcDbArc
 50
330.1736275039399
 51
29.82637249606012
  0
ARC
  5
1335A
330
DE84
100
AcDbEntity
  8
0
100
AcDbCircle
 10
14.0
 20
122.0
 30
0.0
 40
50.0
100
AcDbArc
 50
351.8903855440038
 51
8.109614455995979
  0
LINE
  5
1335B
330
DE84
100
AcDbEntity
  8
0
100
AcDbLine
 10
63.5
 20
130.5
 30
0.0
 11
63.5
 21
113.5
 31
0.0
  0
LINE
  5
1335C
330
DE84
100
AcDbEntity
  8
0
100
AcDbLine
 10
63.96388695848236
 20
120.1000000000001
 30
0.0
 11
73.94999999999993
 21
120.1000000000001
 31
0.0
  0
ARC
  5
1335D
330
DE84
100
AcDbEntity
  8
0
100
AcDbCircle
 10
59.96314775086819
 20
118.2945686957594
 30
0.0
 40
0.7000000000000001
100
AcDbArc
 50
150.1736275039398
 51
225.0
  0
LINE
  5
1335E
330
DE84
100
AcDbEntity
  8
0
100
AcDbLine
 10
59.51040764008564
 20
117.7573593128809
 30
0.0
 11
58.99623103493979
 21
118.2715359180267
 31
0.0
  0
ARC
  5
1335F
330
DE84
100
AcDbEntity
  8
0
100
AcDbCircle
 10
59.70333781612623
 20
118.9786426992132
 30
0.0
 40
1.0
100
AcDbArc
 50
154.0314409251152
 51
225.0
  0
CIRCLE
  5
13360
330
DE84
100
AcDbEntity
  8
0
100
AcDbCircle
 10
58.62652416360254
 20
116.8734758363976
 30
0.0
 40
0.525
  0
ARC
  5
13361
330
DE84
100
AcDbEntity
  8
0
100
AcDbCircle
 10
56.5213573007868
 20
115.7966621838738
 30
0.0
 40
1.0
100
AcDbArc
 50
45.0
 51
115.9685590748846
  0
ARC
  5
13362
330
DE84
100
AcDbEntity
  8
0
100
AcDbCircle
 10
63.0
 20
113.5
 30
0.0
 40
0.5
100
AcDbArc
 50
270.0
 51
0.0
  0
CIRCLE
  5
13363
330
DE84
100
AcDbEntity
  8
0
100
AcDbCircle
 10
58.62652416360254
 20
116.8734758363976
 30
0.0
 40
0.9
  0
ARC
  5
13366
330
DE84
100
AcDbEntity
  8
0
100
AcDbCircle
 10
58.62652416360254
 20
116.8734758363976
 30
0.0
 40
1.25
100
AcDbArc
 50
225.0
 51
45.0
  0
LINE
  5
13367
330
DE84
100
AcDbEntity
  8
0
100
AcDbLine
 10
57.74264068711921
 20
115.9895923599144
 30
0.0
 11
57.22846408197336
 21
116.5037689650603
 31
0.0
  0
ARC
  5
13368
330
DE84
100
AcDbEntity
  8
0
100
AcDbCircle
 10
57.20543130424061
 20
115.5368522491319
 30
0.0
 40
0.7000000000000001
100
AcDbArc
 50
45.0
 51
119.82637249606
  0
CIRCLE
  5
13369
330
DE84
100
AcDbEntity
  8
0
100
AcDbCircle
 10
72.14999999999998
 20
122.0
 30
0.0
 40
0.65
  0
LINE
  5
1336B
330
DE84
100
AcDbEntity
  8
0
100
AcDbLine
 10
63.96388695848236
 20
123.9000000000001
 30
0.0
 11
73.94999999999993
 21
123.9000000000001
 31
0.0
  0
ARC
  5
1336C
330
DE84
100
AcDbEntity
  8
0
100
AcDbCircle
 10
63.0
 20
131.5
 30
0.0
 40
0.5
100
AcDbArc
 50
180.0
 51
270.0
  0
LINE
  5
1336D
330
DE84
100
AcDbEntity
  8
0
100
AcDbLine
 10
62.5
 20
131.7
 30
0.0
 11
62.5
 21
130.8738635424338
 31
0.0
  0
ARC
  5
1336E
330
DE84
100
AcDbEntity
  8
0
100
AcDbCircle
 10
63.0
 20
130.5
 30
0.0
 40
0.5
100
AcDbArc
 50
0.0
 51
90.0
  0
ARC
  5
1336F
330
DE84
100
AcDbEntity
  8
0
100
AcDbCircle
 10
63.0
 20
130.8738635424338
 30
0.0
 40
0.5
100
AcDbArc
 50
180.0
 51
270.0
  0
ARC
  5
13370
330
DE84
100
AcDbEntity
  8
0
100
AcDbCircle
 10
62.19999999999993
 20
131.7
 30
0.0
 40
0.3
100
AcDbArc
 50
0.0
 51
90.0
  0
LINE
  5
13371
330
DE84
100
AcDbEntity
  8
0
100
AcDbLine
 10
59.51040764008564
 20
126.2426406871193
 30
0.0
 11
58.99623103493979
 21
125.7284640819734
 31
0.0
  0
ARC
  5
13372
330
DE84
100
AcDbEntity
  8
0
100
AcDbCircle
 10
59.96314775086819
 20
125.7054313042408
 30
0.0
 40
0.7000000000000001
100
AcDbArc
 50
135.0
 51
209.8263724960601
  0
CIRCLE
  5
13373
330
DE84
100
AcDbEntity
  8
0
100
AcDbCircle
 10
58.62652416360254
 20
127.1265241636026
 30
0.0
 40
0.525
  0
ARC
  5
13374
330
DE84
100
AcDbEntity
  8
0
100
AcDbCircle
 10
59.70333781612623
 20
125.0213573007868
 30
0.0
 40
1.0
100
AcDbArc
 50
135.0
 51
205.9685590748848
  0
ARC
  5
13375
330
DE84
100
AcDbEntity
  8
0
100
AcDbCircle
 10
56.5213573007868
 20
128.2033378161263
 30
0.0
 40
1.0
100
AcDbArc
 50
244.0314409251154
 51
315.0
  0
CIRCLE
  5
13376
330
DE84
100
AcDbEntity
  8
0
100
AcDbCircle
 10
58.62652416360254
 20
127.1265241636026
 30
0.0
 40
0.9
  0
ARC
  5
13379
330
DE84
100
AcDbEntity
  8
0
100
AcDbCircle
 10
58.62652416360254
 20
127.1265241636026
 30
0.0
 40
1.25
100
AcDbArc
 50
315.0
 51
135.0
  0
LINE
  5
1337A
330
DE84
100
AcDbEntity
  8
0
100
AcDbLine
 10
57.74264068711921
 20
128.0104076400857
 30
0.0
 11
57.22846408197336
 21
127.4962310349399
 31
0.0
  0
ARC
  5
1337B
330
DE84
100
AcDbEntity
  8
0
100
AcDbCircle
 10
57.20543130424061
 20
128.4631477508683
 30
0.0
 40
0.7000000000000001
100
AcDbArc
 50
240.17362750394
 51
315.0
  0
LINE
  5
1337C
330
DE84
100
AcDbEntity
  8
0
100
AcDbLine
 10
70.25
 20
137.1000000000001
 30
0.0
 11
71.14999999999998
 21
138.0
 31
0.0
  0
LINE
  5
1337D
330
DE84
100
AcDbEntity
  8
0
100
AcDbLine
 10
71.14999999999998
 20
138.0
 30
0.0
 11
73.14999999999997
 21
138.0
 31
0.0
  0
ARC
  5
1337E
330
DE84
100
AcDbEntity
  8
0
100
AcDbCircle
 10
72.14999999999998
 20
135.5
 30
0.0
 40
0.7000000000000001
100
AcDbArc
 50
0.0
 51
180.0
  0
LINE
  5
13380
330
DE84
100
AcDbEntity
  8
0
100
AcDbLine
 10
71.44999999999993
 20
135.5
 30
0.0
 11
71.44999999999993
 21
134.5
 31
0.0
  0
LINE
  5
13381
330
DE84
100
AcDbEntity
  8
0
100
AcDbLine
 10
72.85000000000002
 20
135.5
 30
0.0
 11
72.85000000000002
 21
134.5
 31
0.0
  0
LINE
  5
13382
330
DE84
100
AcDbEntity
  8
0
100
AcDbLine
 10
73.14999999999997
 20
138.0
 30
0.0
 11
74.05000000000007
 21
137.1000000000001
 31
0.0
  0
TEXT
  5
179D7
330
DE84
100
AcDbEntity
  8
0
100
AcDbText
 10
5.0
 20
5.550000000000011
 30
0.0
 40
3.149999999999999
  1
EXP6106-5
100
AcDbText
  0
TEXT
  5
179D8
330
DE84
100
AcDbEntity
  8
0
100
AcDbText
 10
5.0
 20
10.275
 30
0.0
 40
3.149999999999999
  1
分電盤／単式大形電源端子箱付　６回路
100
AcDbText
  0
ENDSEC
  0
SECTION
  2
OBJECTS
  0
DICTIONARY
  5
DE72
330
0
100
AcDbDictionary
281
     1
  3
ACAD_CIP_PREVIOUS_PRODUCT_INFO
350
179D1
  3
ACAD_COLOR
350
179C4
  3
ACAD_DETAILVIEWSTYLE
350
179CD
  3
ACAD_GROUP
350
DE73
  3
ACAD_LAYOUT
350
DE7F
  3
ACAD_MATERIAL
350
17992
  3
ACAD_MLEADERSTYLE
350
179C9
  3
ACAD_MLINESTYLE
350
DE7C
  3
ACAD_PLOTSETTINGS
350
DE7E
  3
ACAD_PLOTSTYLENAME
350
DE74
  3
ACAD_SCALELIST
350
179C7
  3
ACAD_SECTIONVIEWSTYLE
350
179CB
  3
ACAD_TABLESTYLE
350
179C5
  3
ACAD_VISUALSTYLE
350
179AB
  3
ACDB_RECOMPOSE_DATA
350
179F9
  3
AcDbVariableDictionary
350
179ED
  0
DICTIONARY
  5
179E0
330
DE76
100
AcDbDictionary
280
     1
281
     1
  3
ADSK_XREC_LAYER_RECONCILED
360
179E1
  0
DICTIONARY
  5
DEA8
330
DE84
100
AcDbDictionary
280
     1
281
     1
  3
ACAD_LAYOUTSELFREF
360
DEDC
  0
XRECORD
  5
179D1
102
{ACAD_REACTORS
330
DE72
102
}
330
DE72
100
AcDbXrecord
280
     1
300
ACDLT
300
2018
300

  0
DICTIONARY
  5
179C4
102
{ACAD_REACTORS
330
DE72
102
}
330
DE72
100
AcDbDictionary
281
     1
  0
DICTIONARY
  5
179CD
102
{ACAD_REACTORS
330
DE72
102
}
330
DE72
100
AcDbDictionary
281
     1
  3
Imperial24
350
179CE
  0
DICTIONARY
  5
DE73
102
{ACAD_REACTORS
330
DE72
102
}
330
DE72
100
AcDbDictionary
281
     1
  0
DICTIONARY
  5
DE7F
102
{ACAD_REACTORS
330
DE72
102
}
330
DE72
100
AcDbDictionary
281
     1
  3
Model
350
DE87
  3
レイアウト1
350
179D3
  0
DICTIONARY
  5
17992
102
{ACAD_REACTORS
330
DE72
102
}
330
DE72
100
AcDbDictionary
281
     1
  3
ByBlock
350
1799B
  3
ByLayer
350
17993
  3
Global
350
179A3
  0
DICTIONARY
  5
179C9
102
{ACAD_REACTORS
330
DE72
102
}
330
DE72
100
AcDbDictionary
281
     1
  3
Standard
350
179CA
  0
DICTIONARY
  5
DE7C
102
{ACAD_REACTORS
330
DE72
102
}
330
DE72
100
AcDbDictionary
281
     1
  3
Standard
350
DE7D
  0
DICTIONARY
  5
DE7E
102
{ACAD_REACTORS
330
DE72
102
}
330
DE72
100
AcDbDictionary
281
     1
  0
ACDBDICTIONARYWDFLT
  5
DE74
102
{ACAD_REACTORS
330
DE72
102
}
330
DE72
100
AcDbDictionary
281
     1
  3
Normal
350
DE75
100
AcDbDictionaryWithDefault
340
DE75
  0
DICTIONARY
  5
179C7
102
{ACAD_REACTORS
330
DE72
102
}
330
DE72
100
AcDbDictionary
281
     1
  3
A0
350
179C8
  0
DICTIONARY
  5
179CB
102
{ACAD_REACTORS
330
DE72
102
}
330
DE72
100
AcDbDictionary
281
     1
  3
Imperial24
350
179CC
  0
DICTIONARY
  5
179C5
102
{ACAD_REACTORS
330
DE72
102
}
330
DE72
100
AcDbDictionary
281
     1
  3
Standard
350
179C6
  0
DICTIONARY
  5
179AB
102
{ACAD_REACTORS
330
DE72
102
}
330
DE72
100
AcDbDictionary
281
     1
  3
2dWireframe
350
179B1
  3
Basic
350
179B0
  3
Brighten
350
179B7
  3
ColorChange
350
179BB
  3
Conceptual
350
179B4
  3
Dim
350
179B6
  3
EdgeColorOff
350
179C3
  3
Facepattern
350
179BA
  3
Flat
350
179AC
  3
FlatWithEdges
350
179AD
  3
Gouraud
350
179AE
  3
GouraudWithEdges
350
179AF
  3
Hidden
350
179B3
  3
JitterOff
350
179C1
  3
Linepattern
350
179B9
  3
OverhangOff
350
179C2
  3
Realistic
350
179B5
  3
Shaded
350
179C0
  3
Shaded with edges
350
179BF
  3
Shades of Gray
350
179BC
  3
Sketchy
350
179BD
  3
Thicken
350
179B8
  3
Wireframe
350
179B2
  3
X-Ray
350
179BE
  0
XRECORD
  5
179F9
102
{ACAD_REACTORS
330
DE72
102
}
330
DE72
100
AcDbXrecord
280
     1
 90
        1
330
179C6
  0
DICTIONARY
  5
179ED
102
{ACAD_REACTORS
330
DE72
102
}
330
DE72
100
AcDbDictionary
281
     1
  3
CANNOSCALE
350
179F3
  3
CMLEADERSTYLE
350
179EF
  3
CTABLESTYLE
350
179EE
  3
CVIEWDETAILSTYLE
350
179F0
  3
CVIEWSECTIONSTYLE
350
179F1
  3
LAYEREVAL
350
179F5
  3
LAYERNOTIFY
350
179F6
  3
LIGHTINGUNITS
350
179F4
  3
MSLTSCALE
350
179F2
  0
XRECORD
  5
179E1
102
{ACAD_REACTORS
330
179E0
102
}
330
179E0
100
AcDbXrecord
280
     1
290
     1
  0
XRECORD
  5
DEDC
102
{ACAD_REACTORS
330
DEA8
102
}
330
DEA8
100
AcDbXrecord
280
     1
340
DE84
  0
ACDBDETAILVIEWSTYLE
  5
179CE
102
{ACAD_XDICTIONARY
360
17A2E
102
}
102
{ACAD_REACTORS
330
179CD
102
}
330
179CD
100
AcDbModelDocViewStyle
 70
     0
  3
Imperial24
290
     0
100
AcDbDetailViewStyle
 70
     0
 71
     0
 90
        3
 71
     1
340
DE77
 62
   256
 40
0.24
340
0
 62
   256
 40
0.24
300

 40
0.36
280
     3
 71
     2
340
DE7B
 90
       25
 62
   256
 71
     3
340
DE77
 62
   256
 40
0.24
 90
        1
 40
0.75
 90
        1
300
%<\AcVar ViewType \f "%tc1">% %<\AcVar ViewDetailId>%\PSCALE %<\AcVar ViewScale \f "%sn">%
 71
     4
340
DE7B
 90
       25
 62
   256
340
DE7B
 90
       25
 62
   256
280
     0
  0
LAYOUT
  5
DE87
102
{ACAD_REACTORS
330
DE7F
102
}
330
DE7F
100
AcDbPlotSettings
  1

  2
FUJITSU XL-5320
  4

  6

 40
0.0
 41
0.0
 42
0.0
 43
0.0
 44
0.0
 45
0.0
 46
0.0
 47
0.0
 48
0.0
 49
0.0
140
0.0
141
0.0
142
1.0
143
1.0
 70
  1712
 72
     0
 73
     0
 74
     0
  7
XL-5320.ctb
 75
     0
147
1.0
 76
     0
 77
     2
 78
   300
148
0.0
149
0.0
100
AcDbLayout
  1
Model
 70
     1
 71
     0
 10
0.0
 20
0.0
 11
12.0
 21
9.0
 12
0.0
 22
0.0
 32
0.0
 14
0.0
 24
0.0
 34
0.0
 15
0.0
 25
0.0
 35
0.0
146
0.0
 13
0.0
 23
0.0
 33
0.0
 16
1.0
 26
0.0
 36
0.0
 17
0.0
 27
1.0
 37
0.0
 76
     0
330
DE84
331
17990
  0
LAYOUT
  5
179D3
102
{ACAD_REACTORS
330
DE7F
102
}
330
DE7F
100
AcDbPlotSettings
  1

  2
DocuCentreIV C3375
  4

  6

 40
0.0
 41
0.0
 42
0.0
 43
0.0
 44
0.0
 45
0.0
 46
0.0
 47
0.0
 48
0.0
 49
0.0
140
0.0
141
0.0
142
1.0
143
1.0
 70
   688
 72
     0
 73
     0
 74
     5
  7

 75
    16
147
1.0
 76
     0
 77
     2
 78
   300
148
0.0
149
0.0
100
AcDbLayout
  1
レイアウト1
 70
     1
 71
     1
 10
0.0
 20
0.0
 11
12.0
 21
9.0
 12
0.0
 22
0.0
 32
0.0
 14
0.0
 24
0.0
 34
0.0
 15
0.0
 25
0.0
 35
0.0
146
0.0
 13
0.0
 23
0.0
 33
0.0
 16
1.0
 26
0.0
 36
0.0
 17
0.0
 27
1.0
 37
0.0
 76
     0
330
179D2
  0
MATERIAL
  5
1799B
102
{ACAD_XDICTIONARY
360
1799C
102
}
102
{ACAD_REACTORS
330
17992
102
}
330
17992
100
AcDbMaterial
  1
ByBlock
 72
     0
 43
0.0208333333333333
 43
0.0
 43
0.0
 43
0.0
 43
0.0
 43
0.0208333333333333
 43
0.0
 43
0.0
 43
0.0
 43
0.0
 43
1.0
 43
0.0
 43
0.0
 43
0.0
 43
0.0
 43
1.0
 77
     0
 47
0.0208333333333333
 47
0.0
 47
0.0
 47
0.0
 47
0.0
 47
0.0208333333333333
 47
0.0
 47
0.0
 47
0.0
 47
0.0
 47
1.0
 47
0.0
 47
0.0
 47
0.0
 47
0.0
 47
1.0
171
     0
 49
0.0208333333333333
 49
0.0
 49
0.0
 49
0.0
 49
0.0
 49
0.0208333333333333
 49
0.0
 49
0.0
 49
0.0
 49
0.0
 49
1.0
 49
0.0
 49
0.0
 49
0.0
 49
0.0
 49
1.0
175
     0
142
0.0208333333333333
142
0.0
142
0.0
142
0.0
142
0.0
142
0.0208333333333333
142
0.0
142
0.0
142
0.0
142
0.0
142
1.0
142
0.0
142
0.0
142
0.0
142
0.0
142
1.0
179
     0
144
0.0208333333333333
144
0.0
144
0.0
144
0.0
144
0.0
144
0.0208333333333333
144
0.0
144
0.0
144
0.0
144
0.0
144
1.0
144
0.0
144
0.0
144
0.0
144
0.0
144
1.0
147
0.0208333333333333
147
0.0
147
0.0
147
0.0
147
0.0
147
0.0208333333333333
147
0.0
147
0.0
147
0.0
147
0.0
147
1.0
147
0.0
147
0.0
147
0.0
147
0.0
147
1.0
  0
MATERIAL
  5
17993
102
{ACAD_XDICTIONARY
360
17994
102
}
102
{ACAD_REACTORS
330
17992
102
}
330
17992
100
AcDbMaterial
  1
ByLayer
 72
     0
 43
0.0208333333333333
 43
0.0
 43
0.0
 43
0.0
 43
0.0
 43
0.0208333333333333
 43
0.0
 43
0.0
 43
0.0
 43
0.0
 43
1.0
 43
0.0
 43
0.0
 43
0.0
 43
0.0
 43
1.0
 77
     0
 47
0.0208333333333333
 47
0.0
 47
0.0
 47
0.0
 47
0.0
 47
0.0208333333333333
 47
0.0
 47
0.0
 47
0.0
 47
0.0
 47
1.0
 47
0.0
 47
0.0
 47
0.0
 47
0.0
 47
1.0
171
     0
 49
0.0208333333333333
 49
0.0
 49
0.0
 49
0.0
 49
0.0
 49
0.0208333333333333
 49
0.0
 49
0.0
 49
0.0
 49
0.0
 49
1.0
 49
0.0
 49
0.0
 49
0.0
 49
0.0
 49
1.0
175
     0
142
0.0208333333333333
142
0.0
142
0.0
142
0.0
142
0.0
142
0.0208333333333333
142
0.0
142
0.0
142
0.0
142
0.0
142
1.0
142
0.0
142
0.0
142
0.0
142
0.0
142
1.0
179
     0
144
0.0208333333333333
144
0.0
144
0.0
144
0.0
144
0.0
144
0.0208333333333333
144
0.0
144
0.0
144
0.0
144
0.0
144
1.0
144
0.0
144
0.0
144
0.0
144
0.0
144
1.0
147
0.0208333333333333
147
0.0
147
0.0
147
0.0
147
0.0
147
0.0208333333333333
147
0.0
147
0.0
147
0.0
147
0.0
147
1.0
147
0.0
147
0.0
147
0.0
147
0.0
147
1.0
  0
MATERIAL
  5
179A3
102
{ACAD_XDICTIONARY
360
179A4
102
}
102
{ACAD_REACTORS
330
17992
102
}
330
17992
100
AcDbMaterial
  1
Global
 72
     0
 43
0.0208333333333333
 43
0.0
 43
0.0
 43
0.0
 43
0.0
 43
0.0208333333333333
 43
0.0
 43
0.0
 43
0.0
 43
0.0
 43
1.0
 43
0.0
 43
0.0
 43
0.0
 43
0.0
 43
1.0
 77
     0
 47
0.0208333333333333
 47
0.0
 47
0.0
 47
0.0
 47
0.0
 47
0.0208333333333333
 47
0.0
 47
0.0
 47
0.0
 47
0.0
 47
1.0
 47
0.0
 47
0.0
 47
0.0
 47
0.0
 47
1.0
171
     0
 49
0.0208333333333333
 49
0.0
 49
0.0
 49
0.0
 49
0.0
 49
0.0208333333333333
 49
0.0
 49
0.0
 49
0.0
 49
0.0
 49
1.0
 49
0.0
 49
0.0
 49
0.0
 49
0.0
 49
1.0
175
     0
142
0.0208333333333333
142
0.0
142
0.0
142
0.0
142
0.0
142
0.0208333333333333
142
0.0
142
0.0
142
0.0
142
0.0
142
1.0
142
0.0
142
0.0
142
0.0
142
0.0
142
1.0
179
     0
144
0.0208333333333333
144
0.0
144
0.0
144
0.0
144
0.0
144
0.0208333333333333
144
0.0
144
0.0
144
0.0
144
0.0
144
1.0
144
0.0
144
0.0
144
0.0
144
0.0
144
1.0
147
0.0208333333333333
147
0.0
147
0.0
147
0.0
147
0.0
147
0.0208333333333333
147
0.0
147
0.0
147
0.0
147
0.0
147
1.0
147
0.0
147
0.0
147
0.0
147
0.0
147
1.0
  0
MLEADERSTYLE
  5
179CA
102
{ACAD_XDICTIONARY
360
17A2A
102
}
102
{ACAD_REACTORS
330
179C9
102
}
330
179C9
100
AcDbMLeaderStyle
179
     2
170
     2
171
     1
172
     0
 90
        2
 40
0.0
 41
0.0
173
     1
 91
-1056964608
340
DE79
 92
       -2
290
     1
 42
0.09
291
     1
 43
0.36
  3
Standard
 44
0.18
300

342
DE77
174
     1
178
     6
175
     1
176
     0
 93
-1056964608
 45
0.18
292
     0
297
     0
 46
0.18
 94
-1056964608
 47
1.0
 49
1.0
140
1.0
293
     1
141
0.0
294
     1
177
     0
142
1.0
295
     0
296
     0
143
0.125
271
     0
272
     9
273
     9
  0
MLINESTYLE
  5
DE7D
102
{ACAD_REACTORS
330
DE7C
102
}
330
DE7C
100
AcDbMlineStyle
  2
STANDARD
 70
     0
  3

 62
   256
 51
90.0
 52
90.0
 71
     2
 49
0.5
 62
   256
  6
BYLAYER
 49
-0.5
 62
   256
  6
BYLAYER
  0
ACDBPLACEHOLDER
  5
DE75
102
{ACAD_REACTORS
330
DE74
102
}
330
DE74
  0
SCALE
  5
179C8
102
{ACAD_REACTORS
330
179C7
102
}
330
179C7
100
AcDbScale
 70
     0
300
1:1
140
1.0
141
1.0
290
     1
  0
ACDBSECTIONVIEWSTYLE
  5
179CC
102
{ACAD_XDICTIONARY
360
17A2C
102
}
102
{ACAD_REACTORS
330
179CB
102
}
330
179CB
100
AcDbModelDocViewStyle
 70
     0
  3
Imperial24
290
     0
100
AcDbSectionViewStyle
 70
     0
 71
     0
 90
       78
 71
     1
340
DE77
 62
   256
 40
0.24
340
0
340
0
 62
   256
 40
0.24
300
I, O, Q, S, X, Z
 40
0.48
 90
        3
 40
0.18
 90
        1
 71
     2
340
DE7B
 90
       25
 62
   256
340
DE7B
 90
       50
 62
   256
 40
0.24
 40
0.0
 40
0.24
 71
     3
340
DE77
 62
   256
 40
0.24
 90
        1
 40
0.75
 90
        1
300
%<\AcVar ViewType \f "%tc1">% %<\AcVar ViewSectionStartId>%-%<\AcVar ViewSectionEndId>%\PSCALE %<\AcVar ViewScale \f "%sn">%
 71
     4
 62
   256
 62
   257
300
ANSI31
 40
1.0
 90
        0
290
     0
290
     0
 90
        6
 40
0.0
 40
1.570796326794896
 40
0.2617993877991494
 40
1.308996938995747
 40
-0.2617993877991494
 40
1.832595714594046
  0
TABLESTYLE
  5
179C6
102
{ACAD_XDICTIONARY
360
179F7
102
}
102
{ACAD_REACTORS
330
179C5
102
}
330
179C5
100
AcDbTableStyle
280
     0
  3
Standard
 70
     0
 71
     0
 40
0.06
 41
0.06
280
     0
281
     0
  7
STANDARD
140
0.18
170
     2
 62
     0
 63
     7
283
     0
 90
      512
 91
        0
  1

274
    -2
284
     1
 64
     0
275
    -2
285
     1
 65
     0
276
    -2
286
     1
 66
     0
277
    -2
287
     1
 67
     0
278
    -2
288
     1
 68
     0
279
    -2
289
     1
 69
     0
  7
STANDARD
140
0.25
170
     5
 62
     0
 63
     7
283
     0
 90
      512
 91
        0
  1

274
    -2
284
     1
 64
     0
275
    -2
285
     1
 65
     0
276
    -2
286
     1
 66
     0
277
    -2
287
     1
 67
     0
278
    -2
288
     1
 68
     0
279
    -2
289
     1
 69
     0
  7
STANDARD
140
0.18
170
     5
 62
     0
 63
     7
283
     0
 90
      512
 91
        0
  1

274
    -2
284
     1
 64
     0
275
    -2
285
     1
 65
     0
276
    -2
286
     1
 66
     0
277
    -2
287
     1
 67
     0
278
    -2
288
     1
 68
     0
279
    -2
289
     1
 69
     0
  0
VISUALSTYLE
  5
179B1
102
{ACAD_XDICTIONARY
360
17A04
102
}
102
{ACAD_REACTORS
330
179AB
102
}
330
179AB
100
AcDbVisualStyle
  2
2dWireframe
 70
     4
177
     2
291
     0
 71
     0
176
     1
 72
     2
176
     1
 73
     0
176
     1
 90
        0
176
     1
 40
0.6
176
     1
 41
30.0
176
     1
 63
     7
421
 16777215
176
     1
 74
     1
176
     1
 91
        4
176
     1
 64
     7
176
     1
 65
   257
176
     1
 75
     1
176
     1
175
     1
176
     1
 42
1.0
176
     1
 92
        0
176
     1
 66
   257
176
     1
 43
1.0
176
     1
 76
     1
176
     1
 77
     6
176
     1
 78
     2
176
     1
 67
     7
176
     1
 79
     5
176
     1
170
     0
176
     1
171
     0
176
     1
290
     0
176
     1
 93
        1
176
     1
 44
0.0
176
     1
173
     0
176
     1
1001
ACAD
1000
AcDbSavedByObjectVersion
1070
     0
  0
VISUALSTYLE
  5
179B0
102
{ACAD_XDICTIONARY
360
17A02
102
}
102
{ACAD_REACTORS
330
179AB
102
}
330
179AB
100
AcDbVisualStyle
  2
Basic
 70
     7
177
     2
291
     1
 71
     1
176
     1
 72
     0
176
     1
 73
     1
176
     1
 90
        0
176
     1
 40
0.6
176
     1
 41
30.0
176
     1
 63
     7
421
 16777215
176
     1
 74
     0
176
     1
 91
        4
176
     1
 64
     7
176
     1
 65
   257
176
     1
 75
     1
176
     1
175
     1
176
     1
 42
1.0
176
     1
 92
        8
176
     1
 66
     7
176
     1
 43
1.0
176
     1
 76
     1
176
     1
 77
     6
176
     1
 78
     2
176
     1
 67
     7
176
     1
 79
     5
176
     1
170
     0
176
     1
171
     0
176
     1
290
     0
176
     1
 93
        1
176
     1
 44
0.0
176
     1
173
     0
176
     1
1001
ACAD
1000
AcDbSavedByObjectVersion
1070
     0
  0
VISUALSTYLE
  5
179B7
102
{ACAD_XDICTIONARY
360
17A10
102
}
102
{ACAD_REACTORS
330
179AB
102
}
330
179AB
100
AcDbVisualStyle
  2
Brighten
 70
    12
177
     2
291
     1
 71
     2
176
     1
 72
     2
176
     1
 73
     0
176
     1
 90
        0
176
     1
 40
0.6
176
     1
 41
30.0
176
     1
 63
     7
421
 16777215
176
     1
 74
     1
176
     1
 91
        4
176
     1
 64
     7
176
     1
 65
   257
176
     1
 75
     1
176
     1
175
     1
176
     1
 42
1.0
176
     1
 92
        8
176
     1
 66
     7
176
     1
 43
1.0
176
     1
 76
     1
176
     1
 77
     6
176
     1
 78
     2
176
     1
 67
     7
176
     1
 79
     5
176
     1
170
     0
176
     1
171
     0
176
     1
290
     0
176
     1
 93
        1
176
     1
 44
50.0
176
     1
173
     0
176
     1
1001
ACAD
1000
AcDbSavedByObjectVersion
1070
     0
  0
VISUALSTYLE
  5
179BB
102
{ACAD_XDICTIONARY
360
17A18
102
}
102
{ACAD_REACTORS
330
179AB
102
}
330
179AB
100
AcDbVisualStyle
  2
ColorChange
 70
    16
177
     2
291
     1
 71
     2
176
     1
 72
     2
176
     1
 73
     3
176
     1
 90
        0
176
     1
 40
0.6
176
     1
 41
30.0
176
     1
 63
     8
421
  8421504
176
     1
 74
     1
176
     1
 91
        4
176
     1
 64
     7
176
     1
 65
   257
176
     1
 75
     1
176
     1
175
     1
176
     1
 42
1.0
176
     1
 92
        8
176
     1
 66
     8
424
  8421504
176
     1
 43
1.0
176
     1
 76
     1
176
     1
 77
     6
176
     1
 78
     2
176
     1
 67
     7
176
     1
 79
     5
176
     1
170
     0
176
     1
171
     0
176
     1
290
     0
176
     1
 93
        1
176
     1
 44
0.0
176
     1
173
     0
176
     1
1001
ACAD
1000
AcDbSavedByObjectVersion
1070
     0
  0
VISUALSTYLE
  5
179B4
102
{ACAD_XDICTIONARY
360
17A0A
102
}
102
{ACAD_REACTORS
330
179AB
102
}
330
179AB
100
AcDbVisualStyle
  2
Conceptual
 70
     9
177
     2
291
     0
 71
     3
176
     1
 72
     2
176
     1
 73
     0
176
     1
 90
        0
176
     1
 40
0.6
176
     1
 41
30.0
176
     1
 63
     7
421
 16777215
176
     1
 74
     2
176
     1
 91
        2
176
     1
 64
     7
176
     1
 65
   257
176
     1
 75
     1
176
     1
175
     1
176
     1
 42
179.0
176
     1
 92
        8
176
     1
 66
     7
176
     1
 43
1.0
176
     1
 76
     1
176
     1
 77
     6
176
     1
 78
     2
176
     1
 67
     7
176
     1
 79
     3
176
     1
170
     0
176
     1
171
     0
176
     1
290
     0
176
     1
 93
        1
176
     1
 44
0.0
176
     1
173
     0
176
     1
1001
ACAD
1000
AcDbSavedByObjectVersion
1070
     0
  0
VISUALSTYLE
  5
179B6
102
{ACAD_XDICTIONARY
360
17A0E
102
}
102
{ACAD_REACTORS
330
179AB
102
}
330
179AB
100
AcDbVisualStyle
  2
Dim
 70
    11
177
     2
291
     1
 71
     2
176
     1
 72
     2
176
     1
 73
     0
176
     1
 90
        0
176
     1
 40
0.6
176
     1
 41
30.0
176
     1
 63
     7
421
 16777215
176
     1
 74
     1
176
     1
 91
        4
176
     1
 64
     7
176
     1
 65
   257
176
     1
 75
     1
176
     1
175
     1
176
     1
 42
1.0
176
     1
 92
        8
176
     1
 66
     7
176
     1
 43
1.0
176
     1
 76
     1
176
     1
 77
     6
176
     1
 78
     2
176
     1
 67
     7
176
     1
 79
     5
176
     1
170
     0
176
     1
171
     0
176
     1
290
     0
176
     1
 93
        1
176
     1
 44
-50.0
176
     1
173
     0
176
     1
1001
ACAD
1000
AcDbSavedByObjectVersion
1070
     0
  0
VISUALSTYLE
  5
179C3
102
{ACAD_XDICTIONARY
360
17A28
102
}
102
{ACAD_REACTORS
330
179AB
102
}
330
179AB
100
AcDbVisualStyle
  2
EdgeColorOff
 70
    22
177
     2
291
     1
 71
     2
176
     0
 72
     2
176
     0
 73
     0
176
     0
 90
        0
176
     0
 40
0.6
176
     0
 41
30.0
176
     0
 63
     7
421
 16777215
176
     0
 74
     1
176
     0
 91
        4
176
     0
 64
     7
176
     0
 65
   257
176
     0
 75
     1
176
     0
175
     1
176
     0
 42
1.0
176
     0
 92
        8
176
     2
 66
     7
176
     0
 43
1.0
176
     0
 76
     1
176
     0
 77
     6
176
     0
 78
     2
176
     0
 67
     7
176
     0
 79
     5
176
     0
170
     0
176
     0
171
     0
176
     0
290
     0
176
     0
 93
        1
176
     0
 44
0.0
176
     0
173
     0
176
     0
1001
ACAD
1000
AcDbSavedByObjectVersion
1070
     0
  0
VISUALSTYLE
  5
179BA
102
{ACAD_XDICTIONARY
360
17A16
102
}
102
{ACAD_REACTORS
330
179AB
102
}
330
179AB
100
AcDbVisualStyle
  2
Facepattern
 70
    15
177
     2
291
     1
 71
     2
176
     1
 72
     2
176
     1
 73
     0
176
     1
 90
        0
176
     1
 40
0.6
176
     1
 41
30.0
176
     1
 63
     7
421
 16777215
176
     1
 74
     1
176
     1
 91
        4
176
     1
 64
     7
176
     1
 65
   257
176
     1
 75
     1
176
     1
175
     1
176
     1
 42
1.0
176
     1
 92
        8
176
     1
 66
     7
176
     1
 43
1.0
176
     1
 76
     1
176
     1
 77
     6
176
     1
 78
     2
176
     1
 67
     7
176
     1
 79
     5
176
     1
170
     0
176
     1
171
     0
176
     1
290
     0
176
     1
 93
        1
176
     1
 44
0.0
176
     1
173
     0
176
     1
1001
ACAD
1000
AcDbSavedByObjectVersion
1070
     0
  0
VISUALSTYLE
  5
179AC
102
{ACAD_XDICTIONARY
360
179FA
102
}
102
{ACAD_REACTORS
330
179AB
102
}
330
179AB
100
AcDbVisualStyle
  2
Flat
 70
     0
177
     2
291
     1
 71
     2
176
     1
 72
     1
176
     1
 73
     1
176
     1
 90
        2
176
     1
 40
0.6
176
     1
 41
30.0
176
     1
 63
     7
421
 16777215
176
     1
 74
     0
176
     1
 91
        0
176
     1
 64
     7
176
     1
 65
   257
176
     1
 75
     1
176
     1
175
     1
176
     1
 42
1.0
176
     1
 92
        8
176
     1
 66
     7
176
     1
 43
1.0
176
     1
 76
     1
176
     1
 77
     6
176
     1
 78
     2
176
     1
 67
     7
176
     1
 79
     5
176
     1
170
     0
176
     1
171
     0
176
     1
290
     0
176
     1
 93
       13
176
     1
 44
0.0
176
     1
173
     0
176
     1
1001
ACAD
1000
AcDbSavedByObjectVersion
1070
     0
  0
VISUALSTYLE
  5
179AD
102
{ACAD_XDICTIONARY
360
179FC
102
}
102
{ACAD_REACTORS
330
179AB
102
}
330
179AB
100
AcDbVisualStyle
  2
FlatWithEdges
 70
     1
177
     2
291
     1
 71
     2
176
     1
 72
     1
176
     1
 73
     1
176
     1
 90
        2
176
     1
 40
0.6
176
     1
 41
30.0
176
     1
 63
     7
421
 16777215
176
     1
 74
     1
176
     1
 91
        0
176
     1
 64
     7
176
     1
 65
   257
176
     1
 75
     1
176
     1
175
     1
176
     1
 42
1.0
176
     1
 92
        0
176
     1
 66
   257
176
     1
 43
1.0
176
     1
 76
     1
176
     1
 77
     6
176
     1
 78
     2
176
     1
 67
     7
176
     1
 79
     5
176
     1
170
     0
176
     1
171
     0
176
     1
290
     0
176
     1
 93
       13
176
     1
 44
0.0
176
     1
173
     0
176
     1
1001
ACAD
1000
AcDbSavedByObjectVersion
1070
     0
  0
VISUALSTYLE
  5
179AE
102
{ACAD_XDICTIONARY
360
179FE
102
}
102
{ACAD_REACTORS
330
179AB
102
}
330
179AB
100
AcDbVisualStyle
  2
Gouraud
 70
     2
177
     2
291
     1
 71
     2
176
     1
 72
     2
176
     1
 73
     1
176
     1
 90
        2
176
     1
 40
0.6
176
     1
 41
30.0
176
     1
 63
     7
421
 16777215
176
     1
 74
     0
176
     1
 91
        0
176
     1
 64
     7
176
     1
 65
   257
176
     1
 75
     1
176
     1
175
     1
176
     1
 42
1.0
176
     1
 92
        0
176
     1
 66
     7
176
     1
 43
1.0
176
     1
 76
     1
176
     1
 77
     6
176
     1
 78
     2
176
     1
 67
     7
176
     1
 79
     5
176
     1
170
     0
176
     1
171
     0
176
     1
290
     0
176
     1
 93
       13
176
     1
 44
0.0
176
     1
173
     0
176
     1
1001
ACAD
1000
AcDbSavedByObjectVersion
1070
     0
  0
VISUALSTYLE
  5
179AF
102
{ACAD_XDICTIONARY
360
17A00
102
}
102
{ACAD_REACTORS
330
179AB
102
}
330
179AB
100
AcDbVisualStyle
  2
GouraudWithEdges
 70
     3
177
     2
291
     1
 71
     2
176
     1
 72
     2
176
     1
 73
     1
176
     1
 90
        2
176
     1
 40
0.6
176
     1
 41
30.0
176
     1
 63
     7
421
 16777215
176
     1
 74
     1
176
     1
 91
        0
176
     1
 64
     7
176
     1
 65
   257
176
     1
 75
     1
176
     1
175
     1
176
     1
 42
1.0
176
     1
 92
        0
176
     1
 66
   257
176
     1
 43
1.0
176
     1
 76
     1
176
     1
 77
     6
176
     1
 78
     2
176
     1
 67
     7
176
     1
 79
     5
176
     1
170
     0
176
     1
171
     0
176
     1
290
     0
176
     1
 93
       13
176
     1
 44
0.0
176
     1
173
     0
176
     1
1001
ACAD
1000
AcDbSavedByObjectVersion
1070
     0
  0
VISUALSTYLE
  5
179B3
102
{ACAD_XDICTIONARY
360
17A08
102
}
102
{ACAD_REACTORS
330
179AB
102
}
330
179AB
100
AcDbVisualStyle
  2
Hidden
 70
     6
177
     2
291
     0
 71
     1
176
     1
 72
     2
176
     1
 73
     2
176
     1
 90
        0
176
     1
 40
0.6
176
     1
 41
30.0
176
     1
 63
     7
421
 16777215
176
     1
 74
     2
176
     1
 91
        2
176
     1
 64
     7
176
     1
 65
   257
176
     1
 75
     2
176
     1
175
     1
176
     1
 42
40.0
176
     1
 92
        0
176
     1
 66
   257
176
     1
 43
1.0
176
     1
 76
     1
176
     1
 77
     6
176
     1
 78
     2
176
     1
 67
     7
176
     1
 79
     3
176
     1
170
     0
176
     1
171
     0
176
     1
290
     0
176
     1
 93
        1
176
     1
 44
0.0
176
     1
173
     0
176
     1
1001
ACAD
1000
AcDbSavedByObjectVersion
1070
     0
  0
VISUALSTYLE
  5
179C1
102
{ACAD_XDICTIONARY
360
17A24
102
}
102
{ACAD_REACTORS
330
179AB
102
}
330
179AB
100
AcDbVisualStyle
  2
JitterOff
 70
    20
177
     2
291
     1
 71
     2
176
     0
 72
     2
176
     0
 73
     0
176
     0
 90
        0
176
     0
 40
0.6
176
     0
 41
30.0
176
     0
 63
     7
421
 16777215
176
     0
 74
     1
176
     0
 91
        4
176
     0
 64
     7
176
     0
 65
   257
176
     0
 75
     1
176
     0
175
     1
176
     0
 42
1.0
176
     0
 92
       10
176
     2
 66
     7
176
     0
 43
1.0
176
     0
 76
     1
176
     0
 77
     6
176
     0
 78
     2
176
     0
 67
     7
176
     0
 79
     5
176
     0
170
     0
176
     0
171
     0
176
     0
290
     0
176
     0
 93
        1
176
     0
 44
0.0
176
     0
173
     0
176
     0
1001
ACAD
1000
AcDbSavedByObjectVersion
1070
     0
  0
VISUALSTYLE
  5
179B9
102
{ACAD_XDICTIONARY
360
17A14
102
}
102
{ACAD_REACTORS
330
179AB
102
}
330
179AB
100
AcDbVisualStyle
  2
Linepattern
 70
    14
177
     2
291
     1
 71
     2
176
     1
 72
     2
176
     1
 73
     0
176
     1
 90
        0
176
     1
 40
0.6
176
     1
 41
30.0
176
     1
 63
     7
421
 16777215
176
     1
 74
     1
176
     1
 91
        4
176
     1
 64
     7
176
     1
 65
   257
176
     1
 75
     7
176
     1
175
     7
176
     1
 42
1.0
176
     1
 92
        8
176
     1
 66
     7
176
     1
 43
1.0
176
     1
 76
     1
176
     1
 77
     6
176
     1
 78
     2
176
     1
 67
     7
176
     1
 79
     5
176
     1
170
     0
176
     1
171
     0
176
     1
290
     0
176
     1
 93
        1
176
     1
 44
0.0
176
     1
173
     0
176
     1
1001
ACAD
1000
AcDbSavedByObjectVersion
1070
     0
  0
VISUALSTYLE
  5
179C2
102
{ACAD_XDICTIONARY
360
17A26
102
}
102
{ACAD_REACTORS
330
179AB
102
}
330
179AB
100
AcDbVisualStyle
  2
OverhangOff
 70
    21
177
     2
291
     1
 71
     2
176
     0
 72
     2
176
     0
 73
     0
176
     0
 90
        0
176
     0
 40
0.6
176
     0
 41
30.0
176
     0
 63
     7
421
 16777215
176
     0
 74
     1
176
     0
 91
        4
176
     0
 64
     7
176
     0
 65
   257
176
     0
 75
     1
176
     0
175
     1
176
     0
 42
1.0
176
     0
 92
        9
176
     2
 66
     7
176
     0
 43
1.0
176
     0
 76
     1
176
     0
 77
     6
176
     0
 78
     2
176
     0
 67
     7
176
     0
 79
     5
176
     0
170
     0
176
     0
171
     0
176
     0
290
     0
176
     0
 93
        1
176
     0
 44
0.0
176
     0
173
     0
176
     0
1001
ACAD
1000
AcDbSavedByObjectVersion
1070
     0
  0
VISUALSTYLE
  5
179B5
102
{ACAD_XDICTIONARY
360
17A0C
102
}
102
{ACAD_REACTORS
330
179AB
102
}
330
179AB
100
AcDbVisualStyle
  2
Realistic
 70
     8
177
     2
291
     0
 71
     2
176
     1
 72
     3
176
     1
 73
     0
176
     1
 90
        2
176
     1
 40
0.6
176
     1
 41
30.0
176
     1
 63
     7
421
 16777215
176
     1
 74
     0
176
     1
 91
        0
176
     1
 64
     7
176
     1
 65
   257
176
     1
 75
     1
176
     1
175
     1
176
     1
 42
1.0
176
     1
 92
        8
176
     1
 66
   257
176
     1
 43
1.0
176
     1
 76
     1
176
     1
 77
     6
176
     1
 78
     2
176
     1
 67
     7
176
     1
 79
     3
176
     1
170
     0
176
     1
171
     0
176
     1
290
     0
176
     1
 93
       13
176
     1
 44
0.0
176
     1
173
     0
176
     1
1001
ACAD
1000
AcDbSavedByObjectVersion
1070
     0
  0
VISUALSTYLE
  5
179C0
102
{ACAD_XDICTIONARY
360
17A22
102
}
102
{ACAD_REACTORS
330
179AB
102
}
330
179AB
100
AcDbVisualStyle
  2
Shaded
 70
    27
177
     2
291
     0
 71
     2
176
     1
 72
     2
176
     1
 73
     1
176
     1
 90
        2
176
     1
 40
0.6
176
     1
 41
30.0
176
     1
 63
     7
421
 16777215
176
     1
 74
     0
176
     1
 91
        4
176
     1
 64
     7
176
     1
 65
   257
176
     1
 75
     1
176
     1
175
     1
176
     1
 42
1.0
176
     1
 92
        8
176
     1
 66
   257
176
     1
 43
1.0
176
     1
 76
     1
176
     1
 77
     6
176
     1
 78
     2
176
     1
 67
     8
425
  7895160
176
     1
 79
     3
176
     1
170
     0
176
     1
171
     0
176
     1
290
     0
176
     1
 93
        5
176
     1
 44
0.0
176
     1
173
     0
176
     1
1001
ACAD
1000
AcDbSavedByObjectVersion
1070
     0
  0
VISUALSTYLE
  5
179BF
102
{ACAD_XDICTIONARY
360
17A20
102
}
102
{ACAD_REACTORS
330
179AB
102
}
330
179AB
100
AcDbVisualStyle
  2
Shaded with edges
 70
    26
177
     2
291
     0
 71
     2
176
     1
 72
     2
176
     1
 73
     1
176
     1
 90
        2
176
     1
 40
0.6
176
     1
 41
30.0
176
     1
 63
     7
421
 16777215
176
     1
 74
     1
176
     1
 91
        2
176
     1
 64
     7
176
     1
 65
   257
176
     1
 75
     2
176
     1
175
     1
176
     1
 42
1.0
176
     1
 92
        8
176
     1
 66
   257
176
     1
 43
1.0
176
     1
 76
     1
176
     1
 77
     6
176
     1
 78
     2
176
     1
 67
     7
176
     1
 79
     3
176
     1
170
     0
176
     1
171
     0
176
     1
290
     0
176
     1
 93
        5
176
     1
 44
0.0
176
     1
173
     0
176
     1
1001
ACAD
1000
AcDbSavedByObjectVersion
1070
     0
  0
VISUALSTYLE
  5
179BC
102
{ACAD_XDICTIONARY
360
17A1A
102
}
102
{ACAD_REACTORS
330
179AB
102
}
330
179AB
100
AcDbVisualStyle
  2
Shades of Gray
 70
    23
177
     2
291
     0
 71
     2
176
     1
 72
     2
176
     1
 73
     3
176
     1
 90
        0
176
     1
 40
0.6
176
     1
 41
30.0
176
     1
 63
     7
421
 16777215
176
     1
 74
     2
176
     1
 91
        2
176
     1
 64
     7
176
     1
 65
     7
176
     1
 75
     1
176
     1
175
     1
176
     1
 42
40.0
176
     1
 92
        8
176
     1
 66
     7
176
     1
 43
1.0
176
     1
 76
     1
176
     1
 77
     6
176
     1
 78
     2
176
     1
 67
     7
176
     1
 79
     3
176
     1
170
     0
176
     1
171
     0
176
     1
290
     0
176
     1
 93
        1
176
     1
 44
0.0
176
     1
173
     0
176
     1
1001
ACAD
1000
AcDbSavedByObjectVersion
1070
     0
  0
VISUALSTYLE
  5
179BD
102
{ACAD_XDICTIONARY
360
17A1C
102
}
102
{ACAD_REACTORS
330
179AB
102
}
330
179AB
100
AcDbVisualStyle
  2
Sketchy
 70
    24
177
     2
291
     0
 71
     1
176
     1
 72
     2
176
     1
 73
     2
176
     1
 90
        0
176
     1
 40
0.6
176
     1
 41
30.0
176
     1
 63
     7
421
 16777215
176
     1
 74
     2
176
     1
 91
        2
176
     1
 64
     7
176
     1
 65
     7
176
     1
 75
     1
176
     1
175
     1
176
     1
 42
40.0
176
     1
 92
       11
176
     1
 66
     7
176
     1
 43
1.0
176
     1
 76
     1
176
     1
 77
     6
176
     1
 78
     2
176
     1
 67
     7
176
     1
 79
     6
176
     1
170
     0
176
     1
171
     0
176
     1
290
     0
176
     1
 93
        1
176
     1
 44
0.0
176
     1
173
     0
176
     1
1001
ACAD
1000
AcDbSavedByObjectVersion
1070
     0
  0
VISUALSTYLE
  5
179B8
102
{ACAD_XDICTIONARY
360
17A12
102
}
102
{ACAD_REACTORS
330
179AB
102
}
330
179AB
100
AcDbVisualStyle
  2
Thicken
 70
    13
177
     2
291
     1
 71
     2
176
     1
 72
     2
176
     1
 73
     0
176
     1
 90
        0
176
     1
 40
0.6
176
     1
 41
30.0
176
     1
 63
     7
421
 16777215
176
     1
 74
     1
176
     1
 91
        4
176
     1
 64
     7
176
     1
 65
   257
176
     1
 75
     1
176
     1
175
     1
176
     1
 42
1.0
176
     1
 92
       12
176
     1
 66
     7
176
     1
 43
1.0
176
     1
 76
     1
176
     1
 77
     6
176
     1
 78
     2
176
     1
 67
     7
176
     1
 79
     5
176
     1
170
     0
176
     1
171
     0
176
     1
290
     0
176
     1
 93
        1
176
     1
 44
0.0
176
     1
173
     0
176
     1
1001
ACAD
1000
AcDbSavedByObjectVersion
1070
     0
  0
VISUALSTYLE
  5
179B2
102
{ACAD_XDICTIONARY
360
17A06
102
}
102
{ACAD_REACTORS
330
179AB
102
}
330
179AB
100
AcDbVisualStyle
  2
Wireframe
 70
     5
177
     2
291
     0
 71
     0
176
     1
 72
     2
176
     1
 73
     0
176
     1
 90
        0
176
     1
 40
0.6
176
     1
 41
30.0
176
     1
 63
     7
421
 16777215
176
     1
 74
     1
176
     1
 91
        4
176
     1
 64
     7
176
     1
 65
   257
176
     1
 75
     1
176
     1
175
     1
176
     1
 42
1.0
176
     1
 92
        0
176
     1
 66
   257
176
     1
 43
1.0
176
     1
 76
     1
176
     1
 77
     6
176
     1
 78
     2
176
     1
 67
     7
176
     1
 79
     3
176
     1
170
     0
176
     1
171
     0
176
     1
290
     0
176
     1
 93
        1
176
     1
 44
0.0
176
     1
173
     0
176
     1
1001
ACAD
1000
AcDbSavedByObjectVersion
1070
     0
  0
VISUALSTYLE
  5
179BE
102
{ACAD_XDICTIONARY
360
17A1E
102
}
102
{ACAD_REACTORS
330
179AB
102
}
330
179AB
100
AcDbVisualStyle
  2
X-Ray
 70
    25
177
     2
291
     0
 71
     2
176
     1
 72
     2
176
     1
 73
     1
176
     1
 90
        1
176
     1
 40
0.5
176
     1
 41
30.0
176
     1
 63
     7
421
 16777215
176
     1
 74
     1
176
     1
 91
        0
176
     1
 64
     7
176
     1
 65
   257
176
     1
 75
     1
176
     1
175
     1
176
     1
 42
1.0
176
     1
 92
        8
176
     1
 66
     7
176
     1
 43
1.0
176
     1
 76
     1
176
     1
 77
     6
176
     1
 78
     2
176
     1
 67
     7
176
     1
 79
     3
176
     1
170
     0
176
     1
171
     0
176
     1
290
     0
176
     1
 93
       13
176
     1
 44
0.0
176
     1
173
     0
176
     1
1001
ACAD
1000
AcDbSavedByObjectVersion
1070
     0
  0
DICTIONARYVAR
  5
179F3
102
{ACAD_REACTORS
330
179ED
102
}
330
179ED
100
DictionaryVariables
280
     0
  1
1:1
  0
DICTIONARYVAR
  5
179EF
102
{ACAD_REACTORS
330
179ED
102
}
330
179ED
100
DictionaryVariables
280
     0
  1
STANDARD
  0
DICTIONARYVAR
  5
179EE
102
{ACAD_REACTORS
330
179ED
102
}
330
179ED
100
DictionaryVariables
280
     0
  1
STANDARD
  0
DICTIONARYVAR
  5
179F0
102
{ACAD_REACTORS
330
179ED
102
}
330
179ED
100
DictionaryVariables
280
     0
  1
Imperial24
  0
DICTIONARYVAR
  5
179F1
102
{ACAD_REACTORS
330
179ED
102
}
330
179ED
100
DictionaryVariables
280
     0
  1
Imperial24
  0
DICTIONARYVAR
  5
179F5
102
{ACAD_REACTORS
330
179ED
102
}
330
179ED
100
DictionaryVariables
280
     0
  1
1
  0
DICTIONARYVAR
  5
179F6
102
{ACAD_REACTORS
330
179ED
102
}
330
179ED
100
DictionaryVariables
280
     0
  1
15
  0
DICTIONARYVAR
  5
179F4
102
{ACAD_REACTORS
330
179ED
102
}
330
179ED
100
DictionaryVariables
280
     0
  1
0
  0
DICTIONARYVAR
  5
179F2
102
{ACAD_REACTORS
330
179ED
102
}
330
179ED
100
DictionaryVariables
280
     0
  1
0
  0
DICTIONARY
  5
17A2E
330
179CE
100
AcDbDictionary
280
     1
281
     1
  3
ACAD_XREC_ROUNDTRIP
360
17A2F
  0
DICTIONARY
  5
1799C
330
1799B
100
AcDbDictionary
280
     1
281
     1
  3
BUMPTILE
360
1799E
  3
DIFFUSETILE
360
1799D
  3
OPACITYTILE
360
179A1
  3
REFLECTIONTILE
360
179A0
  3
REFRACTIONTILE
360
179A2
  3
SPECULARTILE
360
1799F
  0
DICTIONARY
  5
17994
330
17993
100
AcDbDictionary
280
     1
281
     1
  3
BUMPTILE
360
17996
  3
DIFFUSETILE
360
17995
  3
OPACITYTILE
360
17999
  3
REFLECTIONTILE
360
17998
  3
REFRACTIONTILE
360
1799A
  3
SPECULARTILE
360
17997
  0
DICTIONARY
  5
179A4
330
179A3
100
AcDbDictionary
280
     1
281
     1
  3
BUMPTILE
360
179A6
  3
DIFFUSETILE
360
179A5
  3
FBXASSET
360
179DD
  3
OPACITYTILE
360
179A9
  3
REFLECTIONTILE
360
179A8
  3
REFRACTIONTILE
360
179AA
  3
SPECULARTILE
360
179A7
  0
DICTIONARY
  5
17A2A
330
179CA
100
AcDbDictionary
280
     1
281
     1
  3
ACAD_XREC_ROUNDTRIP
360
17A2B
  0
DICTIONARY
  5
17A2C
330
179CC
100
AcDbDictionary
280
     1
281
     1
  3
ACAD_XREC_ROUNDTRIP
360
17A2D
  0
DICTIONARY
  5
179F7
330
179C6
100
AcDbDictionary
280
     1
281
     1
  3
ACAD_ROUNDTRIP_2008_TABLESTYLE_CELLSTYLEMAP
360
179F8
  0
DICTIONARY
  5
17A04
330
179B1
100
AcDbDictionary
280
     1
281
     1
  3
ACAD_XREC_ROUNDTRIP
360
17A05
  0
DICTIONARY
  5
17A02
330
179B0
100
AcDbDictionary
280
     1
281
     1
  3
ACAD_XREC_ROUNDTRIP
360
17A03
  0
DICTIONARY
  5
17A10
330
179B7
100
AcDbDictionary
280
     1
281
     1
  3
ACAD_XREC_ROUNDTRIP
360
17A11
  0
DICTIONARY
  5
17A18
330
179BB
100
AcDbDictionary
280
     1
281
     1
  3
ACAD_XREC_ROUNDTRIP
360
17A19
  0
DICTIONARY
  5
17A0A
330
179B4
100
AcDbDictionary
280
     1
281
     1
  3
ACAD_XREC_ROUNDTRIP
360
17A0B
  0
DICTIONARY
  5
17A0E
330
179B6
100
AcDbDictionary
280
     1
281
     1
  3
ACAD_XREC_ROUNDTRIP
360
17A0F
  0
DICTIONARY
  5
17A28
330
179C3
100
AcDbDictionary
280
     1
281
     1
  3
ACAD_XREC_ROUNDTRIP
360
17A29
  0
DICTIONARY
  5
17A16
330
179BA
100
AcDbDictionary
280
     1
281
     1
  3
ACAD_XREC_ROUNDTRIP
360
17A17
  0
DICTIONARY
  5
179FA
330
179AC
100
AcDbDictionary
280
     1
281
     1
  3
ACAD_XREC_ROUNDTRIP
360
179FB
  0
DICTIONARY
  5
179FC
330
179AD
100
AcDbDictionary
280
     1
281
     1
  3
ACAD_XREC_ROUNDTRIP
360
179FD
  0
DICTIONARY
  5
179FE
330
179AE
100
AcDbDictionary
280
     1
281
     1
  3
ACAD_XREC_ROUNDTRIP
360
179FF
  0
DICTIONARY
  5
17A00
330
179AF
100
AcDbDictionary
280
     1
281
     1
  3
ACAD_XREC_ROUNDTRIP
360
17A01
  0
DICTIONARY
  5
17A08
330
179B3
100
AcDbDictionary
280
     1
281
     1
  3
ACAD_XREC_ROUNDTRIP
360
17A09
  0
DICTIONARY
  5
17A24
330
179C1
100
AcDbDictionary
280
     1
281
     1
  3
ACAD_XREC_ROUNDTRIP
360
17A25
  0
DICTIONARY
  5
17A14
330
179B9
100
AcDbDictionary
280
     1
281
     1
  3
ACAD_XREC_ROUNDTRIP
360
17A15
  0
DICTIONARY
  5
17A26
330
179C2
100
AcDbDictionary
280
     1
281
     1
  3
ACAD_XREC_ROUNDTRIP
360
17A27
  0
DICTIONARY
  5
17A0C
330
179B5
100
AcDbDictionary
280
     1
281
     1
  3
ACAD_XREC_ROUNDTRIP
360
17A0D
  0
DICTIONARY
  5
17A22
330
179C0
100
AcDbDictionary
280
     1
281
     1
  3
ACAD_XREC_ROUNDTRIP
360
17A23
  0
DICTIONARY
  5
17A20
330
179BF
100
AcDbDictionary
280
     1
281
     1
  3
ACAD_XREC_ROUNDTRIP
360
17A21
  0
DICTIONARY
  5
17A1A
330
179BC
100
AcDbDictionary
280
     1
281
     1
  3
ACAD_XREC_ROUNDTRIP
360
17A1B
  0
DICTIONARY
  5
17A1C
330
179BD
100
AcDbDictionary
280
     1
281
     1
  3
ACAD_XREC_ROUNDTRIP
360
17A1D
  0
DICTIONARY
  5
17A12
330
179B8
100
AcDbDictionary
280
     1
281
     1
  3
ACAD_XREC_ROUNDTRIP
360
17A13
  0
DICTIONARY
  5
17A06
330
179B2
100
AcDbDictionary
280
     1
281
     1
  3
ACAD_XREC_ROUNDTRIP
360
17A07
  0
DICTIONARY
  5
17A1E
330
179BE
100
AcDbDictionary
280
     1
281
     1
  3
ACAD_XREC_ROUNDTRIP
360
17A1F
  0
XRECORD
  5
17A2F
102
{ACAD_REACTORS
330
17A2E
102
}
330
17A2E
100
AcDbXrecord
280
     1
102
DISPLAYNAME
  1
Imperial24
102
FLAGS
 90
        0
  0
XRECORD
  5
1799E
102
{ACAD_REACTORS
330
1799C
102
}
330
1799C
100
AcDbXrecord
280
     1
270
     1
271
     1
  0
XRECORD
  5
1799D
102
{ACAD_REACTORS
330
1799C
102
}
330
1799C
100
AcDbXrecord
280
     1
270
     1
271
     1
  0
XRECORD
  5
179A1
102
{ACAD_REACTORS
330
1799C
102
}
330
1799C
100
AcDbXrecord
280
     1
270
     1
271
     1
  0
XRECORD
  5
179A0
102
{ACAD_REACTORS
330
1799C
102
}
330
1799C
100
AcDbXrecord
280
     1
270
     1
271
     1
  0
XRECORD
  5
179A2
102
{ACAD_REACTORS
330
1799C
102
}
330
1799C
100
AcDbXrecord
280
     1
270
     1
271
     1
  0
XRECORD
  5
1799F
102
{ACAD_REACTORS
330
1799C
102
}
330
1799C
100
AcDbXrecord
280
     1
270
     1
271
     1
  0
XRECORD
  5
17996
102
{ACAD_REACTORS
330
17994
102
}
330
17994
100
AcDbXrecord
280
     1
270
     1
271
     1
  0
XRECORD
  5
17995
102
{ACAD_REACTORS
330
17994
102
}
330
17994
100
AcDbXrecord
280
     1
270
     1
271
     1
  0
XRECORD
  5
17999
102
{ACAD_REACTORS
330
17994
102
}
330
17994
100
AcDbXrecord
280
     1
270
     1
271
     1
  0
XRECORD
  5
17998
102
{ACAD_REACTORS
330
17994
102
}
330
17994
100
AcDbXrecord
280
     1
270
     1
271
     1
  0
XRECORD
  5
1799A
102
{ACAD_REACTORS
330
17994
102
}
330
17994
100
AcDbXrecord
280
     1
270
     1
271
     1
  0
XRECORD
  5
17997
102
{ACAD_REACTORS
330
17994
102
}
330
17994
100
AcDbXrecord
280
     1
270
     1
271
     1
  0
XRECORD
  5
179A6
102
{ACAD_REACTORS
330
179A4
102
}
330
179A4
100
AcDbXrecord
280
     1
270
     1
271
     1
  0
XRECORD
  5
179A5
102
{ACAD_REACTORS
330
179A4
102
}
330
179A4
100
AcDbXrecord
280
     1
270
     1
271
     1
  0
XRECORD
  5
179DD
102
{ACAD_REACTORS
330
179A4
102
}
330
179A4
100
AcDbXrecord
280
     1
 70
     1
 90
1959938040
 71
     1
  1
46121374-5051-4433-9CBB-D9CB4526A159
311
504B0304140006080800F284EE54633AE2C710010000A80100004F00000044443842303842352D313642302D344435452D383633372D3242433845424336373043332F4173736574446174612F446566696E6974696F6E4974657261746F7250726F706572746965732E62696E7550BB4EC33014350C200606041FC0C06AE2
311
C48F389510AAE38432B0C00720379836929B547522D68E7C1F3F04D7AAC38084A573CF7DDF237F2284BEE303171D01F660CF811F6C67776DF3D2ACEDC6A0939071FDD2B81BF0E43CAB7945382EEA2CC38CCF2B2CEB826259D19C4A5A0A2DE531F49D02B47D37A31BC2CAA7D637D639D3D97EF417908837AE3766805BC6DD86
311
A1338402ED01682AF8B069755014447E00CCDB76766FBCB7C35DA2B554442A8E53A108669A832041739CA95256AA14392969F26C7D3FEE1AEB1326D22CA539C39CF0143346292E4AA5B006CB7826E6292F92613D86AFB90A32969D695D429228E175DBAD1E41A49C2DBE022F2E0F3CC592C638F26F7DCAC7B9FFFAFFCEFF00
311
504B0304140006080800F284EE54D9CDD2D7EE000000300200004500000044443842303842352D313642302D344435452D383633372D3242433845424336373043332F4173736574446174612F496E7374616E636550726F706572746965732E62696EEB606060F80F0540260323103700495E20ED9E9A975A94991C9C9C91
311
9A9BA802143031333432343637D135353035D435313136D6B5747672D275019226A646668E86A696EC088D202DC686262EAE46A696BAA640E5BA26664686BA4E6E4E2EBA86E6C606CE66CECE968EAE964065607B193463FA0F7DD5B8620FA49980620D400CE38369201F083ED843543330083830088085C0848A03828D9505
311
D40801700656654041B8820FCC405E031043B53E80D23C40214C000A47840CDC100C85293B1D30C4500430B5828CD64052F3C19E05C803C5161F10079727962467E83A1525E6A5A4A68064626363FFD3020300504B0304140006080800F284EE5488E57597CD3F0000904100006B00000044443842303842352D313642302D
311
344435452D383633372D3242433845424336373043332F5265736F75726365732F34363132313337342D353035312D343433332D394342422D4439434234353236413135392F7468756D626E61696C2F302F67656E657269635F706E67355B773CD4FF1FBF73E71C0E67EF7576C9DEF3EC995D46C6A1EC5046649CBDF79E19
311
2942562825CE965D8A868C2842C8DE9FDFD1F7E7F138F7078FCF6B3F5FCFD7EBFDFEC41B196891913091804020321D6D7513FC77D8C5070EC3FFEE51B21F068154CC75D455CC028A3EA68992803810109FDDE5D5CEC5521B28A1B422BF80741695D5B529DA1C2D058AD2388BDA9F476F7C2CADC939304173DBF48A452BF8A7
311
00C0C70C3D121C1AA15A5270C22E2B9E28763651F7DA0D12CE11077B2ECD0D560B5E3DE2368B1E65C5E1C87384A4CC5F2D9FB8BE39E9B77C753783A37998F5CEF1B4FEE553463245C9712270880DF339E0B882A6BA713D865F6F384C842D440934EF264F4A304F8DE4EEFA1E2BF5E2D91F5ADD9613D6E31DDB33ED31DB1D79
311
16CAF091286EA3D31B9CFECB78BB0060245B943C4C040119FF780A74DD308BA9D028678674EB5504ECF284EE814DAED07440BAF649BE4B55DA2890F4D73E2D489A59EE54FDB0A85B59F2F52C4858A02705C4815A792B0C4A996A2023ECB195073E115E3E3647F64243A8338F2000BCB58DA5692C7E7C3D413F963FEDF3CF00
311
FBB0F831A9D51360FECA43819F527B89FA260EB63C5DA676830AA3626A3693B23F1A17A0DFFCE3EE164E31B5365EDF0C89EF64D8E38AB0BA9A1117D7C3A0EC44F44F4023095E80BA610DE336D0F99593A88BFC5306E72DF98F7FD132ED95878DF2964EA7E43071359FD83B2BDF9C6B5BDF768F0F3C0FC351199526F53D9460
311
A34511F75D1B63E488178569472C91A94497807A3FD4A390C6558F26D416365C3656DE6E769DA9D8FC73774E1709812842DD8EF96AED1960F79D21B395CDDFE6F92CB4EB962A4668C76990E2EF29798C8941D67DA50F4A5F947872460F1F6FDB794E8A29FD7AC0C0D6E0714339CE258FB17AE8535221E3464A10F29A0BE5EE
311
ECEFC5675926A89F49EB14E5711894F6586DB5754EB4D5DA9C6437EBA57DB97A24F8B8A8DB295FFD73266CF57E82694DF5166DDF93573AFE9C9C5EB05F8FEF8E89E0A8917B0B3724DB7BEBB53252581EFC3E38166BA131A3A5B42FE2AD00A769BBFA4458D2DE7822F8C4F63D0B8E21B285AE13325F3410A435C648C9D91FDE
311
B109E73CEDA7BC796961AF79175E1A3CE4C5E8B0D009B0C9E29EFD98BC8E97554E3D8D838424E270F7685226E5AC268E021EDE3522D583E8F20C0BDE2959EF5BBFEEDAB32FE9A3ED0E39F211A86AA9DEBFC68182EDED132AB8BB794442D2D7EA9F4D8BFF52BC4D55BB165124EE90A42D101E67BBBB292FFB4F66DE5BF2300E
311
44546757DA7CEF8932BFC9F92A0707953491A55C5A5ACEDABD9FA1AEA01BAC3DC5A24E22E7C47213493996EFBC369D086ED9397C9BA6C7F9855C7BD5E15BFC8C53DB3D2A4C5901A57ACD2FBDF4D1676E95338B2C2BCE65FDA4C64F5FEFDC7D9CA5AA1FCF11E193F2FDABF0F4916BF13FB916A224380E6462A9815F2300DC49
311
CC4DF8D055CEF76462F4B7A7ACA7365C2707891370BC1D0AA6203C44CCAB47084FEC057F27FFCD57F89B8B9852459798A675C66BD7CE572CAF71FF7E6D7ECF7BF62CAB7B3F1107DCD04DC55A3F9961700286141C94A4F771FEB2BCDA2DDEE0CB0BAE402FF1DB0100F8E475DFFFC074DDB4498AB7D186A7654DDB1CB680D703
311
D47CEB4E72F8CB13D86A4AA68116E26387B93FD6738779B34FEDB8E517EDF2BAF28D9BE93A1D3A164320E07D42E514725C29515FF361754213EDE06B079A2E99EB1CA82A02019EADEEB87B9AF005BD04BBCECB14AACD6B24EFBE482194A97DD32400685FF1FEF1544D1B14EFB1E7F08E6D2CD2AF52DE757F35F5E62332EE88
311
EA26417AD5C3E0E319D68F25414E6D672BD4522B278C57D18F0113921C71D96527E091F00CEB15AE23D24667369BD3CEFA10C7549D930890BA4366F4EBC55F01F746109F98ABCDD5A3EE06619C6AD78AB33E48E4C9BD21BF7478B385EC05C4F8987E2C1BFA0A60EBEDAA0AE0B015C2720ECE180FB6F2DEFBEB822D96338C9B
311
63822183BBF52FB664A7AE57003AABCE512BF77E7E31BDA2E739AC4C131657DDFE5225E900FB56CC01CDE808FA4A9C9DA16AC679656BB64796283D89812B8F91136AE18EE5EBBAF47A73BE3C153EB5D4CD491B4BFB4FE690A4CF9ABA08C0D8AA64220C438C96EA6CA80B58FE5761E697B3A292EB9FBDA502FA863E49FE694A
311
DDFFF9D62C520BDD1A22014147A0903A05B9B729F54272EF83931FEEC057BFF8C8055C279EAC5C0011804828734024F6CFA319C9CC6867C727184465CD9BB7ED386AFFD96B294A85E3802FAE47244602D8273615952B98C4F23F7EAE4463D9D638EEE374A20959E0FE519C4CFB0FBFE5DD80C2AA3F9DB961D1BDE57E67C9BB
311
47B77FDD74EE3094F5DBBE3EBC1FBDB7393F5116263009E2EFE1AF9A221B2AE234C902BF70E9F280ED23E73908361565964333A3F01D0B006AF32FB21AA1316744B489D5A198E85299241735BE559675130955C902A8ED761FC0DBE337A9F91919AF5CE32AF902ADF9AB2615E00E8A94586BA1A90839B61832FF1BFB76D2EF
311
ADE6DB1BA04CCAD3DA649E7E2A0219F592E22F2AD54847EEA8E42271011E9074F8F3DD9FBA6CDF88FFC9FC7E811AD1CA8F4557CE4AFC7BBEDCF0114A48689F20A584520C74DA8127124B767E2FB91A6B186246727BE63C9445BAE02088D58B8EFDC0F1072407CD9B89A13F6303B4A928F593AD489B58E6869325790ADC4060
311
36C591729FE14021F94B7796BB11848D463536A092A26F077F94639F7CEEE2A724C66EC885F4A24F8B8A0AC321F8FD149BA529460FAA34E4663C02D41FDF80BCA222D42F0ABFF8490F4FA74C673807C2051D8E467B47B616072860069A9A303ABA9B319D58404461401B0A0F9BE5E1E151C14BC33B32ABE03DDE91708DFAEB
311
15E7C0D593C86BB7D7EC17BE56E57975F077BFD5525F3A1A361D584A75E08CF29FC7B44B2B3085014F3A5A14517377C3F6B8F37E59514C3B12F8AACDEDDA4DFC49BE5710101534CD6FB6DE15B50F11A09472AABA727F0C49D9CB906B158030065F48EB3625E010CEC1D511D0053474B11E6A4F01C0D6EF1BED3A944FDEC70E
311
0DDCDC756C86545910E0DAE3BE3AA9A404574C2995CD5CAF9549226BC94B4F4F0F5F9086F418F6B32346464610D8BC7391D3C3A3CCF04CFC1FB2A3A3170E369511868F14EEA4E5E438CC73DB1F3248AA94B6B2FF33B222FF3D1E7BF146CAD229770158063BCE4F5391964DF62F7E52A7BE0EEA829C9E13C4C147D6F93FE59E
311
111DAB5E4594D6F3CD1AD375EE039930EFE5AF2BB2D41C83C7DABD8C659BAFBE8FAB392CA634F3D15C1D945DB4588D2B0824A4EC928AAC565557CA2F0DAA588CA5BE30B3A8004F7BF005E96CBF891D7F18112A3619FDF530DC8AA64954258E1811789B5189B49B4EB53F5F89F7D37523894F3EB57B373763C91E502F52CC99
311
EB7BDDF933FC324C4FFC2561DFFA7339FAFDD0A4BFBE6D3A8FF9ED1FC49898139864602458968913181918F719CCF5A68B2EE9C1FF050E34E63107003B8120FA982C21B30A874E4F5E4B38D5A8290C4B8D9BE48A0BE31EA995BDC37AC6DE90BA17D259DEF53605D55922FEB1855D915B659FBEB350EE0DFB2F9F766E1C84CC
311
8964B75D08667445EAB966015F63A18A9E0A325C1B3DC628C0D3CB60F767FA93CC65F25458BD23C3B312716E5F40E5858AC06EBA9AB14F95DB99147B832069201541D09A0D856E12C629CF32683760EE855537D1901988D5EBC156676C7DD51D7207CF3267AF1D76C2AD867315E44618015313A98B19941C696FED3461CAA9
311
B5415F918556D7802EDACEFD6B2E45853A9735DFC9DBF7E440F9319F8B6805A973BCCDC76C069A9144E51F187EDCC12FC31B5DEAAF0A76137199B106EC84ADA6B6EE697D4E6A96E007417F4E880E8B1E89B4BCE9D81EF611E2ED8F0C1A6C25F620FAFAAB656A7C42D464880E8AFAB0E0FC8EA38CA9A8AEEAEE3E4648BA4680
311
270A89743CDD3E6C6CBF34B7B640EFA285ABC7EA0A1E28F3CC963D114A80123EE66D0AF7D5380EB41909B605AB4765B709B808590458157E69BA1378FEC4B48CAF6A730E3BE3C5EF2DD1A5EAF94B1DDE50CEB55DDFD7EE9A16747FA4B223359FB1FCC69E1194892BABB93A1D5C4E807AC0EA2E30180811E77A2291F6E7F7FA
311
A5E0F60215BC6024E48DE436C511F0628B8CA189982D4D83CCA17D305A7E923C37941CFDFDCD93ACAF735EF5F0E61BBD3E6C41A59B242790D3A3BAC7064DCD89AA2E37214EC839820949D5CAA31E240D2948E48F690298974A96BA9A8432BC90F5071D6537C9666EA4564796B7AFFFA548077BEEA75F63083435074BA182F3
311
699557397F71548383FDA8CA34D99B981E72835ECDA5DDDC151315173D05A21F651AAF8524E88209E2E7A737ED1045800CE3390050BCFB8BE588DF111617874C62575039CA588EEFDEFEFE319B739DE2EDC147092A262611E159650E787917885EF08F1F51B8F2D8A71D60B58B190FEF9541A1BE94BC19FEA50784DA1419FE
311
4B0FB51B8D36B5FF8E1286FD8AF42B91E59A5F1CC4D60174E764045FD8C57B18209B217F89A62252BD20BE0E63E12B8E8F029FE19E0E8D0870F58721A557082250D5424F7909369376E41666C0EE77CD87CB283F661D5FB6D0DA023CB67320A20DC7BE661E9E1BFE5463085C557DA1FF9BE835733766C3D139F2CF9E220887
311
3AD0EB4814DE9E6BF2CAF81614D4D43906ED1C05A3265CABBFE192770FC2F64F940CB6B17B5F166F133C9AEEAD2641807C3E69515171DD74C4A85311513D6EC9530B3B601B6BA3EBFF3B5C3D2F7D69765141E345F75433953D013ADDF8F6AA7DC3F4A7563FE5C7D367937E2900D7EAD0F9FC9A4A1A9B5BDF1FEF08532660C0
311
1C5D6DE22199AA774383E306DAB87E301ABB7D213887F9869D4942D0D71E94B27EDF216A318BD488D45DF84529EF575AF3C3938C0AAA0215B01994153E2054A0B894DA5C784980633AAD48576957CF4AEAEAFADC7C587368551C73DBE1E57C58AC713303A8BFC258BD04B51724459FF9E24C03A81E0E0679CEB9B348C0DC99
311
8FEB9C6D6EFA77D247CC8F92D3848599ED89A23218D0636465AD1CEEB7DC140D7426F83491C4E8E8281C2FB35240918FFECE880CA2A42D70E8B20B34DF5221C7DB0CF90ECCB9C745B37A47E9B716FF7A97B7A252C1F3814DC7B1E1A7F72B8751D524EF7CAE45B0C73B3BE7D08ED39781B380DDFC9AA4A4749C9493DB5BAD07
311
A6EA6C092FBD0E85DB004DF06B8C9D3089C5320187E4CE1846158C7EA7DDAE8AD9AFFF21AA3A1026BB06A259845E8232DEE62811A4DA9CEAB3A4887320B76E2AE5615EAB7BDF738CBDD01F1E64064BC13D9EC53576751CA8CACD58B3CEB0E6CA585BD089B2A59B9FC101403387AADBDBE70586B93D64BF3AD4453EF9C3B6A9
311
3817E8346991798601344F79A83C51F3D50F7BF2683A3605F51A72449489E0EE6169C749C60B1035651103AEE24D24E51A759C840DD3FC6504DA6FE107510E447B43461C79D22970B75DE5E1BD3007D1AFC619A4A4A69B5626AF5E9B8374E20677F77E2F8E73DF868E8BEC7EBA7B6A75EEF7205E1AB9486CB642741D6E03FF
311
13FCCEDB1C4AC129886268B01CDF4B124AF797CF784F3C6DEC97A17D4B558070A0F1C04DA4FF9BDBF34159AEFE958479824B3F58EBD1E19088A2AFDE501B6F2052368A3FD0E650A179EFAB1561E1D27527077136E652676C3670F42DCB3352F48F6BC86D2C3B0051727E41A0A4DC6CE2BE9D47F5CAA2935A3C0539AF080665
311
997194ABECD723B08129CC5B6B21D2E7D54CD4D12610E7E9FB8306771A89576C7A982002775ED44F3F744CF21EEBB27A631671D921938AAEE3EB0D19CD1E083727F607823E817BF599DCED5394E37EEBC2E88782E638920CA641EF74D4CDFCDEF06F4278ECB18E31E7E9876F2D783C8BF429C75395F57E98C2B495A3DA077E
311
B3AC3C158608B6B57FE3EA48484D9A480096FCEE0DE880950E7E5A5714131C5C41AAA29FD19AE81AC145FA1B9E85C7169A5AB837B213493DF7E9AA4B5FBF9CDEB36EBD21EF1181B7CF7366AB2A951D01E37AF4EB835D1BE8C117CFBE7625D2EBCDB0B20C5A4B45CED0BCDE3EE8DA9DA78C2E21DEAAFFD1197E463C33CC6A80
311
FB785669B856EFF7A8CCCA2841B5A5369173320B1170C368B2748D81062EA0296E5E2D95D7667A4A46D98A6FF475C76AAB0A8C8D45E226FAFC9FE0133EA9F60111F99CA81ACE03A1D14C89E8B0D69079C91464FA1D99E651D0EAF606F345C42A8A1AA9BA391031582B96D5B4176A77AADB01F12FD298A75DEEBB2C82F0B865
311
0E880722F8DDD90C56A7A058E5FDEF1AC93545BA27367C76F5D8F9690CB6F8DAE141EDD7971F0FB548A2AE435F224D6E5954CA155512F7332029D5A1230854B79F258EC5FFDB09F5F6343A8EB193229B7F7E79B3E48F8E183860B38C8269D1B53738FF1E0BACF6AADA6D4869E9DE708E79B5DADCC09B1BC76F649731CFAF59
311
A83FD8BAE4C749D66FA87A3810D4D62FFE826FA400C0F325D2BC0F3CA35F5847B82A2ACC7961745C823E4D863D54460AF792CE6F79B5C7A33B25C3AEA6CDE15A919B6367D781E9D44F61BF828672594A3E1D9EDD6DF179A81F27EAC05B936575D73E05C209DDD2115CFB705DF9BBF3C911589B3640735E9E618FC9C36A7326
311
C82B2205E244C55D56FDB9D5DC93CE958D4BF8174D2B3DA54CB3C09F2C2A6DFF73D23B2197355761AD421EC581284A7EF8DE2CE3497C0C804D49B41DFD6A7360844E5BEFFB495CFCDB97A4595911CDBA623274CE852B5E278AF0BEB1770E9D37CD977B2766A7DED0E94B840E1E95E8C77DE5CB6354AF7871427C28ADBEEF7B
311
A0A28E19DE9ACD75F379FE373EAE6DDDAE3834692F9C2B03B4FCA8FCA9ABE8EEEBEBB725B88A7C90941E850682CA04061A7DF0CE82ED49BFAFFD42C309818FAE14755CAAE78B0F73243ECCCAD7DF58FCB9CDFAE7A4D3E6671A613639130D056C8383C8F4FCF4808C331E544DD26E4755D09EA05253B3049A1E32587CC25D72
311
E073E2CD96D04A71BBCB0038FEC3F53D254199C3CDC67CD66640269431860225392B2CB3ECD0B4498AAE78BA1994246AE1EE78F2EDFB79F6C6CB6B5E279C4D373FBC21CB2698C9ACBBEB6A4BB6B39E16AB0E421CCBFC7654D81ED86022F9BB522146F9F4772E2D0E4FA70120C95A85A417BF5078B232F4754363EB1750B2AC
311
2148EB46B1EA72AD9B4D23ADCBC589D70106C3EC2ABEEED84DFE28E718C6C83502C28E9FDD3B09DA0A6F6F7B72B706A31C9E2A331EE70DA56A083D2177BFD63C55B11D8D949FAFCF90B23A1E24B9B5018B9A17E99F2890EC302F330FE7936E2C23F0D237EC8916F5166AB84B62A21BB0B950146962D754F92CC2C8877BED8F
311
C7B7B25726DD19545392570B3A2C66B58F027BEF412E552D12A588C4A3CC5C3193FCB3485EFFF700D0B9EEC077754A33DC1FB9E25AF814628F91DDFECB667D3F7690803F38D13F8AE39353523BB08FC6760144AFA2CE28236F65EDBB3D5F59A57D612B99E3D7E5F8A851666BF9B5A6658EFC96EEB37A378ABB0EB3FDDF1303
311
AF32C41BD1C8560745D7BD81066B0D6313359CF488563D3BA3F8E2185D1FAA3EBA1397C9D0E3DD232180A4DCADB6AF25DB3AC3CC26589C8239E66E81547BC7E2F328F9884764CA37EB5DBE390DFC03A5246B456A7C3684C4377D0EEF9A350680FA9A077E8B2957B489E09AB1AD41316944C2254B5984830F691C93CAA767EE
311
CF976FA5647538830B5E63236A6F0365C1E0F3E327F24FE35EDDBD7360B0F7374837409F7A6311BECC12B7026D4FA1AE204FA3F5FE904B1F420C7A9044AE58E403E7C4848E7DA25DC9EDAC79DD756FAA26B9EA83ACE8A214A2612A22AFA19DAE7DBAC5F8CDE1292A485F98DAC731A29FE01A3966E96BCB9FB5A4C8830E1B9A
311
F0C54B87FBE221A097036E5D28D1F869F810C06A9BB0AC0612F69AEBAF893C6E7AD59460208BAB3A6B09CA4F6BDDAB8CF0D1F84B72487498395A70DCD754796E271099A567A55CF242BBED64696378BB6CF25EF0FCDB589F3A82F1116D010A9AB9FA4358809EE0C973A2B4229BAA876A70B03AB49CBA7FBE71DB1832FFD32F
311
9BF2C8E98075CACAFB36921235D0F552B6A67E94E094097A5D7DF681B40623DA535ADA7A9AD8E9A62407D7C9A5AE51D62A17A83A23728DE86BB56115804D3F2675F2C6B87541A0FC497BF0CA86420F558C9859EBE9FAD62747E323E3AADC03FDCDDFE7407B09DA90B44E3185723C5381EAEF589765E2F7A099BA46695BAD60
311
CEF3491B8A171F5F56444F7CE9455312C3498C74173AEA0214EC029833B34B650CBB5A5508D5091665309642791708ECF27CF11DB3D797D6CFE474453BD4BFADB768094B2147814D81C7CBAF8228DCAF5564B5891F5EF6A860EB2E323CB82AB868D8EA048880D63B0DE5341F1B3D53297B928A11E15F25E5148990F710747C
311
3509ED14909C552EBE3973246FCE55D00564D8310BC3EBC5085D08D806799B77D6C57FDF5E55837F9E934F09C03C729271B64F12D0A9F9E938107CAF7BF1EC8CF1BB9B42363D33070F4CACB425E605DDB0A34A12BB936DE286B9887A4E2E558F0886498BFF49C311D96C277CF6A9FC0D75AD0ECC5226D7E0E3572012E56D7F
311
DE4410CEC7A6D0F997F225A2055B8B92E3956E875AE4993CB3D4C9063AF98FD45E1BAB165640A43439A2C9181A7C355B297C0A0CCFFAE19B6FA3C2BA238A885FBC98B8F6DAF4B94B97304878DF4D8BFF6A4AEDF79E90ED4E68F00CD7299F4E0D83E35601AF0CBEF18C1E870E74758FA91F5131075004DB3CFCF09AE1DABC11
311
957FD9808C92E8A678CE9DBE40DDA0E0D1D505AAFBCBA208232BFB6FB3704E8985E61ADE53DE74152F5C7DE74B1DEDCD37DC3E8FB30D7EBA8B9EFFC3606BF90B8D438279CB7709FC7C00D327F41817EEA71CD9E49FE9C8C9A81C70915D9F0F15958EC5AA4C3BBFAF46986B90F188BDB24B89DE3C6F29EC3E6F66D84856EE96
311
A35E657CA41B41EFD8DBFA16AD6E91439EA92B40B21C053249F51AE50EB0B24C770FFAF40DF12C8436366819C48E36547D4E7B72FE2BBF10828583057814A668BDF183F6B2E58DFB151103E56303E63D00F39C27C4661605DB644D19175D02E3F0241E8FC3458D17AAAADB117CE9EEA690D0DB01E634878C04C2C9310B69FC
311
AB831151E3AD293BEF6E46B0ABCECB50F5939B39C613D41E81FAE8D34CAE3C4566B761D37185FE864AC32FCB71AEF39DAA5BAB88609BB980CD2F07A8F941653B529567726E2B2A58D079DD57E1E5E31426CF184A04D7B03B985F276D47406AF276FE32E3328BA866EB1FD39BEF57863A317634AA5FE467409B3873F5069EF0
311
D71AF00AD189D17BA1974ECDB2D623E9E14086386A6AAB5807825C37B015BFE892AFD154920EC437EB945D958E18622E1E0FE2FA06557CE4BB9BBD05A2D40E774DA2B65473791E314B7D6C886820B2FCFE4AA272B3B8B15E7344A145E8AF919B5454D89D36D413E87211186BF6F645E5EC94DCCE8E1C799022E4EC9BC86D7A
311
0F2AFB1FC4B2CE48F84B3F49ECE65BAD24CADCC07EFF39AB06BE9E6B27A059938EA7208838455383DDBCFCD967DDE4650EF92A14FF933C975DB20BD7FEEBC4487576485963D757D16340D9599FEB362F775F38CA4185A86F74B629C81B133644A3B18FD056E997E0734F9BE26D11C0AAFC669E2AC9FC41D281F8B2E1C35AE2
311
7BCE05F3DA295488096688719D974DF1B5D182DB7792288697F8763CFB43562C1CDEE11C4AABD5C22B6E33F6F389CFC3477C5919DC0D533F8A7A1846B7ADB60ABDC26C43D0CFC8910B7C15EE22675BD02702ED39DB77A87A192CA7A543E6205B979B9F5A6B512A3CA799E198B2D5797C0AF8D1D872CA455D4D431A7879D4DD
311
76110B5FF7F4176B54477A9EB5E4A5D11214FDA585F0382751D8E2582BA5D2075053298FEB8F1537304E32CB22C2E2B693DC0A760B1DFCA751BDC445AFDCBB12820ED85F6D5298933C7EF1211E9E057684056CDA3FEF3BB6052355E162DF27C59E965A8DDB7F9437EB72CDDA3A090DE65A5B2F50326247B7EC67B73ACC7047
311
FC9B353D6EE990F772207C6EC52B39DC2F3C0754821DAB559F7C1809C7D0DD5B0499D0442E0A6E391B3D5DB46D11E731E6794EC77523FBDAA242ED67F9FA1FB684255671F63C9BCFE6E7E896D51001A6113EF2298BA494E0B0980D1FA5B9D60796554C02256B1E0345FB7C6186B6A19D2DCA270416262845FA4F42DB5D9B0A
311
0B6F07FCA2E56C242522E001E0CEB734AF310FC8BFB57E38E03AACE93B3326A2197891E68452B26A6307FDABFEE0223D3C03C3C73D2D5BC054C8311F12004CAE488E5C29287F8156A2CAA4AD0D7BE6B97264E4139F437CE73ADF52E5134C52B819777C18B323A5924E4F67AFD13B1CDC3A61793A79FAF5C0CEB718E441071E
311
797C6DCCB9EFCF7E4A1E9F3DF3C2F9C9E8294E9586868788C972857FB0556D7A26941A7EEB9B580AD78EC40B85DC906B4120A563CA3B87797ED612D3B035962BB75F6515A393F4CB057F564CDF54F2E5A024514E6A1F901DB80C7E70B1FC05E356A7E72FABF4775B3E3FB8F70A2A8E7B6A94542BB304157978CCC999E707A2
311
9CC795E67A59CC546A5D47B368954CA7B6E75EC9E1F6FC73CE3B4F71F8CB1A6B15923D61EAAEB14626AAA9D04A26EB9C66CD1BE86CA31A5D8703DE04CD1EBCE4F5CCB62F93909AD11E55799A781A956ED27D3E738F4538CB04ADABC7DAEF20BC35BA6A90BCC1DC61BA05F20D8832FFB9BC9B15E2DB838A0AFBB7E0C82A5621
311
27E0446894F427794C3037186F622BF24DE1B00AA10A23BFA47B2A180D6DA5AD6F7326FEB8C100C2D7142EB2A0B2A9D1008A09BA343D70E054AB69E2A7EDB783CBD92537FAF4A44D1296AC2792729104B3276C276C951D0CF3CF3F1E6B017720A7B8505A5FF9589365979678C36F1BAF759EAF57C60F1FF5FE9DCF5F8E764F
311
F25A2D06CF25117A8FED51884C13B2B750DB0E4F5E3D64124FCF11F0AD8F1CC3B3DA4B38ED22BF1CB2585EE6BFEBBA63FBFD44F9537B9B37BDD6B358720F98A8125AED4349CCFEB0E135F19E208A04CA7E2B10711185D72E381F448036EF57C9F874E54A971CA37A639E986AC0226DC5AA00D5B14FEA9192234B3DE617814F
311
C221C92F33F1D392F297731B567FD98FD91D989379AF567A65B8ADF177591DB90FBEA99BF4ED11B16E50A0AB1DBF1156D034BBE04D69D08F939D8E92BF525A1DDAFF80ECBC95D8F45D3FDD289FD23F7D8B452F8EBB34EC082DEEE68E18EDDF072060FAD2AB1504DD4879BF67099FC58F6E9DEFBF645D16334A3E9A127C6F1A
311
F6132CF287E433B43A0EE93812B4AA0B194E03EE3FF91EF9C6ED0074A2F6EB18A96A7C9890B1FCDA1F2095E944DB911ED54C60DF16FB74C8CE9BDC7C54C4F14078CF73C2FFF1F1BBCCD7CF64F71407EA1683DBC410D226627F66E509060D5C0AFD611DE681D509DB8DD12FB1265B03C6F5C55FF4C30BD94187FF692B4F1529
311
82502F193098A789526A038AB529A52BC0DC4FB6285CBAC10A8B8DB75DCD9BDABBB221E27D1F8DA9F5EE5926A1C8AA9BA9BC09239C6A7F12914EA3B59EFF7AAEC3FFCCE56F1C5C2980AD072793527565E774F4631DB178CEEC691B1F367BEA0CF2907E1D6B854D527065979DDEF002D8B2ACEA7CE21AE297737EDE1D45B312
311
33B73FEA35BCFDD0B09721FDBAF6432681F2FD10C3E9EFB246FD6E854B344ACC9D8A0EEF876A7314B49B6A499FC650B099D650DBFEC7638ADFD245E2B7839DA5AC5F7D5623FC0ECEEC8653FC9B2BDD1AD4D00A566FBA7186DD3C9CD26512551637498CADB950FEC71ADB9A5524285DE328B8EC7EC75D2345AEC6A27C42AF6D
311
9B92155315C80DBFCABBB7DA0FAE425C4FB896B15C9BFAC4FE67DF5A23D30C93DA4D8F36FB15D100050DA6062E22AEC5F4DAC4F6FEEF97AE05DE63C6D38F9E068A20BC5E3B6BCD75320C5090924E7F93640A7735B1A43451C2D91EE62C6238B797349E59890AF3A520DF4A87095F3ABEC2E61F0593416CE46CDCBE0E00E252
311
3FCCD04408588B5B6C9DB6459C786CE378770B54F51DA3A5E1DF2A3349BEAAC234A6CF8993B598B3B25B4B113E353A4D750FA7534749430F3EBF2512E7EA3FD43C6AB9A1F765A58463B306721A15D224FAFE8C6F5E3432D57EE697DA0DD5A9D4866A8BCCAAA9DFF1F06047851408FEC060471D0E3EB86BFAF46E4B5E60311D
311
C3E3CEA147C75CF971BE74689507154FF2D2E92F15CDB2B9182B11459FD8ACAC5A85F174BC94A7F4EE4C4F5CAFA7C02E37BF0BC77B7DCD0C047BC316F562A01A441AFA7931CC84A28CB9F4AA367EB515778F29BFE61195FA671F4352E5E46E3A64773F1F76EE5EB36D7BCE9BCEAD837A4D77F8DB8C92AEEF6711920D7C7D0F
311
76B0FD0EB7AB83724CD35BCA7D36DDDF5FBB7FF6F04A91F3E2BB3B8F1A43CD659639507FF6331C5F697BCC782AE57D757A27D97F1AB9E0AEDB43F92F1B2AACDF5FEC8ADBAF9F814E2027003BA2F9E144B1938A7A04050AE5D953B82C45619165C813A10E76DD6906B3C16438064D14CDA713AEC420034613E1AC7241904A49
311
FBF87409AFB1FCB9B72FE7933A87D8FBEDACECE4EDCF6A4FE9FB94D5DEB74FAB7CFEAE17EE965DF980DCCA2D04134994F9A2E94D2265DA4FE6AA7B7AC15FACAC2B5ABBCD7DFF542C5314FDAB2E1B9D8B65220B8E2B638BE008E8DCA22678C820C5053664D15E89F2D735B51A84955E81A443545E9FF787BE0FA700A76D136C
311
27DA179A7C6E8939E01BE756E19CB292798063D8B97F44E8A27BCF3A614FEB8BE974A718E86F7EC99B53CA35FA24F61F2B07266684623A3D4CF073E511F3A10A8FDAFAF0078C577F4DF9D339FE7862E5FA47CF4344209E5BF76D783B1B48E152AD281B15FCB934DCDA49CEC5706B1EE8B460F435324A5CAD154725E21AB804
311
4B75A557A79F6C807B9340AA3D92503E866F4274412926C8C504E4D5EF8C0E68DD0B028781A6B4054F11CF18941F101C57CCC796773ABC8DED9CD91FE5788806C05E548895354AEAC96546D55B0E94A59F148D061F42AA398D822CDECA4CDE79E13469BDCC44FDC990F366BA5978C15F97ED80CBFD73B0CD9B8B83A4F6845B
311
DFBFAF034019473FB9A63BD55D3A4A7284757071574029A4D016DCCBE95DD679EF3C4880BF169422F8C89B68A988D2B13793CAED4F74DE7486C72DC94DF46B8E93D8E02EFCB1FF9B3BA10C8AE7F653DF94F4AF466CDDCEF5776687F7C4C14B63E4EED1719DC2EC482D7DBCC7AE518CDE3D5FF86D39000EC3673C0044E1D308
311
BF05F74D1B5F033A7D1BE7F74BC55BBE3E4A20F920946CA0271EB17BD2B80E5660ACB8A29A79F5E4BBA49D4D945B6EEF4A7EFEAA65E5555BBB57A7E15D2F83C69F30BBB978D2B39F1F26FC097424D39BB33CA3D87ABF64E307938B685BAD44F71556A30B7E712CA4FE600613C3E554B69ADE949A7CFE214DF1FFF05CB82151
311
EC6FC31950239F94CF7AD39DC473F6EA356E5EC2C4EFA04383CEFE985A127484366FBEE3C0EC4FEA363E4F6632AE781392FD45D67B63FB8DF70E82734F431FD3443172A0E30A83D60982D55FA6A2CF86DBA8382502ACC6CDEF3B907982EED1160E14863FA242F9757347E1544275CCDCF71ECD5F8621CBEA326B8BA884AD7F
311
825781923E66971F04010D574C541D8427A438A37EEF8AF88240EED7362C953F5A81DE2D56109CDE2524EA0F5D2F87308C0C47BD97AD605878AB8589E17CA83930CB5E0DCCD75853D68B1AB136594926DE426C367428E9334AFAFF90ECE221BB5DC9E5BB53D2CDEF954EAA9CD814F0E5725F1965DD458E5F8487683AD86B9D
311
0076BE3EE91EB1CECC5331A67A3F79D8B27587C12EC2A6A70474749F27B4C0BBAFB94B34189E88DC18964BE4121B9137FD516C7755356E50D6714E31ACD222621EBBCD1CFF81D87479056A9DA0E0B8EA19D24CF937DA89F78E8650CCBDC110AAB6C4E46DCBFD0446BA9E2060E81F314AC2031E88135E5476AC0160EF5C0DD2
311
EEF1B8B5CB2D198BE9A554A9093B5F7D7E4B5407DDFCA1D9C152FD97F55BFFFDFE802954DFEC8995B983E28AC92F1971E28F531DC407A1280EB125F64A72E617EFB27DFBCEDCDA2D6F2BDADA36873EE46B9BE1782998C63DA7182BC383FB6FD15DA472B175D7E8B4FC88F38D6E07FEAA3FA3CBB8F6B449ECF14D2175E5C5CC
311
A3A42ABF24CA6C9395AF74535F4DDB38CB84F56614B0FD32D7E19CA5CF988DB4449C40E23DF2B16772594554579094450F56F253CD25EA7F77366FB1CFE79696C428BB64D5A41E986189427E5E4D7E2DAE3D5BB4972B3DC44EAABDDDD63A2264ECFA5C786EB0EE1FDC5BE34FA0F08376869FD1E61EA06CAE15191135445EE8
311
F0394161C3266A596AA035572BB0C8876180D8B9C77D307DF9DCDF7365ABDA6F3A2366436457A4DFC1F259666569A9E4A79C817BDD5610E5200FCE894A358EC72858D50EF67545DA81C6FACE3D457BAF70367E1E6BDD9A952FB4F56247F58F523B97E640246051A72F79BE42FFA0B3187F63097F91C48B868586F714B0EBD5
311
A00A8412C1236E1298F60C72BE6C96B82B404CADAA304AE9F303176B14BA53FBC2D5E86377E35542019E24D97B96A49B2C0E5006E7795954DEAF5DA58958839043C6C70BD3B1B33B6DC5C31316D8A6923F142E26F6711A2258AF977DDF1F970ECC4F1F2B434B96D81BEB6E89BF3BBB3C7C8CC80505070723D6D7D7D3C8CA27
311
CA164A26024FED94B12A86031867241DA53D929636DA600F050BC40CE48B8BA03D69224720DEE2ED2127390BDF5E6EA64527BBD4C4C63FA76BB801FEEC0E61218EC98A8A86CD8313781617877E66692839B9468CF4DB8E50A73986E558E309C0D6F676F921BE02F1185454DC75B111572FF9D27D85EA14C05AD7271225B391
311
C4275659CA4A43759D0BA44639BE4C30A84DB7F67A41399FB95CBF923B1B1672ABC807C1590557FB18D811983FA97F5E609516D62281D38B1281F68FC75528C35E4CD7DF0F7DBB5E5DD69C414EBEA2F4A5B241B996BA77AE6C772E367408C633EA3E438B68563EA8BE7667F3A4C4FDEEA52ABD78A2820F443B7914A15F1800
311
18D231E64519C56A12F6CA7C8DAE18F06F6B769DBF92329EF6A5D18FBCE600F36BD8E8198DE5CDAA96181F3A756EBA5501CEE58F497EA4F418A2B82565B9BCC611713C0B708CCA1F398B78C5F7D03B3437CC18F13061F55C7BEDADD5ACB1DB0E36D3CE47FF6EA1A563A57E9649EA5D14D1A50EAA457463381C073777EF1600
311
607BAF6428A7DDC079D47A204EF1E1F1F0589FB054D45E02CE623B3823C317C601E589E22B1E88B448524B86A82828E32345EC18AE17214B42F8C41C6D428016D9BA31DDCB47572561E5A402E5BA4FCE55F78AF7268524AA04130F3A20BA5D1E9F9948EA48FC8F5314FDB35E21898198060034ACE5E3E2BBCA34092518F275
311
190AF65F45867FF0900AA4B81F25427414C372BF51DC29AA855C5428EE1EEDD6B849AD60F6E73475C2D2523F8A2772C840A478DED18A8C5C91B085F255DC4F54EA7AA8947354FD17ECF8FB3B4A0DE7B483CAF3A1165EE05BBA413E5C1FEF3DE1D6B8F2F3F3251C17D9FCAB48A9AAF63AC773A0E413BBC46A9ADF84A566FC92
311
0E4D8C52C9769EE3301CADEEEDD92B312E02E2A7E35B7F1E7D203FE5A7D75578B06E99D0E46FFADB8FDA17ED8880390DA29094202D6F645F76F6F96409CDA05495A96E84B04A00D1A6C6C81D7F3DE9376E828CCF144EE50E364ACCE7237EA0BFB5607ED1AC3CFE73794E5B61739D14DF1743441B1AC98F00ECEDE9E7301FA2
311
9755FBEFA68C91EF2B314CF510537EF1ABFC9A762496280B546F5EDAAF8A5B387D469FC9A878A92828C88608453ACEC6094DCA54111E7AD5B2663DFE2DD151B7F123B9F4FEF8EE36AB125FD7AD52A59B1B765B3E3F73E3F73DEA93875004D2AFFE3CDE9493B87A9904DD052028949041A91DC0E1BA47BA714343FD5B25E0A6
311
A09503AFC17C790058A836A324FE31D7893512E28230332F153181C1E018E1124EBE1BA262AA428A518237D1EA7275E48C5C561BD19ED6912EDD8367DA0F31E40EEAE9683DA9257525AEA7B632B97119E17145A90231768A4F3B9120FF32E8319B015E3CBE26F1A754177D8185345817C096B0CE443A955D13AC15E1FB5DEE
311
A0239EC32A3C92241A237B0B02FFCB4F93CF2B02570C8D192E2F2A68CEEB42F12E6F8CEEFF46C251E22B4341C56FB08CCE550E7A9D6F4D6564B9EA52A83D5BF2C6E03FA19D2775E15A8A7ACF30A13C259EE7F5EF2AC3BA354F1500E1A07FC63FB4686E2F12EC69719F9ECF5FE3F35598DF2CE944008CE78F0911BA5BE5D0A3
311
4E0098FF038669C26030BA9B300303039852A8F6F496341737CA7E0D2E3AAA36DE0A70AA7D9CA0D54D9AD84B18A44C9E625475E1C97B93BEBB38DCE7D227E67A2D00F531436136355F243D1FC0D712C5765754FA22FCFFAE97919161F46D6E61ACB37D83777B385889770B50765B127768443A5C4D3A4E35A3151111F146B7
311
CA116F918A049F1C272F2CD7976C69A0068773451659A97E0F4A08FE604C3FF6CE7385DB19F4D3ABC8A0D80DA8A42096AC377DB49382B36E270B6FA7570188B4B7D1DDDDA82ACA487CCA5D38BD3BD039ADBAFA4ACFF27809239B722081E2EB9F145320553D183F28471C388BC8814E5045676767AB58A8E72D1CED2CA73137
311
9515D2E533E4CF0B39DFC625F97AC4836831A4DE330E87A8126FA17EBE583D614E71E22A8DBF2825599743E0640037303E8E1B1E8EA4E1ABFA4F62907B5E4E0E5DCFDAB417C36C6848A2B8D15F1E505434C0707E16B1CFC2A1C36A42BBF55734F8F4301DDC2A5110CEE8C0747F69519265012A2174BF4E955ECD4FDE095A3A
311
BC70536B7AD0B9D7892F81287D667C108703C9B66A221E9A0929D030008F77FF6F5D2108EF5706FC87A3069B976F7C9FC3239D13D283CDEA83597461079FEEE049B0F392889898B7D87D31F8D60ED7B56B91823A8E4EDDB36C6172ECEE42BD42B12CD67994FA0F0DFAE9389356F4CD4425A4B8AA55CBF7ECD585C6A2C23167
311
91E43D5C06841ADBB226A87FD61515FFBB0167B74E56BD7F3E90A57A97FEDCBDF483A0D6699A8C0849CAEB4947FAA90D8E332D9DEBD9F4738C37DA0CAF9CF3DAA68BCB67C420459C7A64498D6E848E5CADE92BB6901F607AA331104A67F7CD650EE169B1DAE94D2C31C2F993632259B6957E246EFE4C5481107B0711860770
311
0040E5812A2A2A38DA0076875258C753F60E0F2662C748EDD5F3F3686B8FC3BD6FE631ECCAA1E8B1C1E565AD117E54893E79F4672E32F9E46B2A183DFDCF3EECB4D4D077DBEA0DA254D256045109670050129E9B9B1A9E4A11344D61497A992778095151510C4BB7EF2009B63AA4360635312E4CF668B7E0D3D85A8688E2BD
311
83B569439892ADB63461930D428E0DE42E4AC57CE48DA5CC1449530D8BD3D6A0F08DF20C8E8F570F2CFFFCEA286E30969B4654D498A58D9DA782E19FE3F002181838925592C4A1EF0B332D88B61A92C644547BED490D3A42CFFAB70E36D961F694F6307F72FF15A1C79D5B1B5CEFD353D9E2B52566DEC8F8F09CB3E8359C0F
311
68EBBB7898243E34E12A015B2685AB303C04D3A9E00671FF3DFF0A184E4A2ABEB2B666AF5B3A209C73D8EF29DCDB069C9F391EEE9DD0F74C7BCDE16F8F02E3B8816122BBEB50665775B600549D8BB33A54A6BF940C028118BC6878C79958D6784F9DEAA6E26748386FFAF8D0D0101E2847B6563F5D8DC1D78F787BE00E2C94
311
1AE12148D4A81599FE8F68D4DA5CDED75530ADE138240300EE13B0FC13A1687FED6774662C05A2B7DFB186732F0D7A93545D8B0A6390AE5054D9CB582DA846D7A061B3358B45E2B52DDE63E114397EDB7E09233A579155D795BE76102CF277F4DF8B188C4F2879BEAE3C08347124BF9ED23B128259FE107D31E34A652F090B
311
30B39E0D9AF917B76A2806135621A8A60681F16AF216514BBD02711585B5B1AE823F4B2D0369EA5B6BCB863072727FFC871CA6C9AB79A814D989057E9470A3D238BC87CBB4A0EA49AFE2B86F22E499793CAA9047080450166BDC357524561E258C77CB697F1ABB32562CF87C3B7AA12F911EF19FB3E5C02222E887D08202A6
311
0A17151F5E053A86B437771088B4FEE14D652C43E8D939995D34545E12E2FF93D4E366EAD25F10CB7DED141563C3D0C447AF06078A91135FD4B9611583CB4BF3BD167F2399CEAB0E0100F8FFC305F00F1711717173138B4B48C83022295DE657EFEDD97F238ECA80F528AFB4F8D67AD4E2594B9A3AA86D7487EFC313BA9574
311
5C186F0CDD84CC12DC9CB0424B42203D351FD9C0A3AF10CC7F388E0329279087386421F194F4A29464C1DEF7EF8BE515E4A199DCD5B909342598D8FE6A231F71336248D5CEC5454455C7BE383B3BC7B260FED27F703FDC39A170F3827239102F59D4DEE7FEF82EAA1A5E4BA94DCC4CC44E7E2EDE20F24244E4454369D2E87C
311
3F823F193FD4FD27E1C23984B01898D15ABC20711A8A558054951A6AE280096BA36CBA439603B7B0B4C45F248C14B2383B4B5CD8ECECE4FF859AD4A6CA2326D020EF090F4041D28DB66E5256B56232CC52829DE8060BAE6BBF37D4B7469B822454FE93210A3E8D15E69FFCF01123222611C51C4FD0A041A0CFA2471CF6BE38
311
D2B20FA4C3525B5B8B586759475CF80ADFE67A284AC24651E52B8E683D24C2622642F27E7C3C22783BCF63648BC398BD6CD0D9C97E7E7E3EACB6126DB7A6C1FD9F1031302EE67ED96F22B77C7CA0239BB324207559B105E4693EB26EC46182A92C9C0DBD24F29B31C5C5AC1F84300E0E17CEEAC15F5736FA4A98971E2F1423
311
BFCD68D4BBD5F86E74B40A369F39507C88FCDB35D2DD8DEBEA4AF999E23CF2816D204200DF6E611781B9884C1AC8888B4DE397320472959434323A5A36B22A8E1F721A270DF3BD65E4A31C11FF048AFB0D8B7B6881423793963A23CFCE935FC189ED36FAE35C46DA3574C979E4394BE52084F3081837BE033396D2EBD80F1F
311
691B273F660D2B32FA27A33B1DE4ADA5F0FA4651511102DFA410DDA86E065272CA314D5249DF91B06BB92807B28EFD54F08F7B525252782CD276DD02E6B0319B13DF87B1F6361AD6B28FC0D711CF445429B9E5A433CD493051C49A9E03DDB1B147D880253514A5DED88009018620EE229101C041950E2D8AA8E1F5F5438E0C
311
0C0C60EEDEE9E3E0C051948C69F84BB7B2A48A1F3C8EB9E6864687F4F4F6F6E2FA87608ADAF9C5E117B7C1A737E710769DA1D15ECE6A84502AA855398712D5FB51BE92E4EF824969CE18278798AC303C2C7980DD2500ADF8FB1E6D6C2FAAFF9987178923334A244758BAA01A9A1B70FA5097D01E1CC2A58DAD0EC94CE6430A
311
A9B0C10D75E3C6BAC670EFBADEE1607739CE0FC18A2587E3EC3058562014C64219C69BC269082D5C2F4A659278D585755912176D78A1B641719C2A394CED495A1AC5D583FD2F5EDD93308EA7EAE8A6DD396598BDBD3D4CFED62D18A5BDFDE0DD5C80D1A89BA62697B131AE7CE9A6594138582F1B37D68F1749AC7CB67A7069
311
5D48A4A056AC1FBD4E82358CEAE38F54B95A9016F9000F9879C0D9D131768635CA798895F27D6F1614F11F2838A83611AA51C9A3DDB539D42979C29F10465655C17BEC3E2760B80DCBF609198C7B171A531905F3EC218D696025975E986C6B4C666666787271F202805577DD5A3EF0CAFAF91B62DC4B2DB4217A7606282F31
311
D8DDBC290593BAA93EA6353AFA9939B877978481E15CFC9F2755CDC00C538F63A4BA3E80AE009B73CA0185687D339A507D165B74290D6EE46D5C58148F020C3668ABE9EF2F7549170DC80DB41FFC1D678FF19AEB10C7133832B104B80F691B3138F97A92D26E551F1F110400D45AC71A9B9AC41A1A1B1DAEED0B0810638EFF
311
B511D46B121C6FEA0F38CD00E03CFFEB9713FE1F9C263E4DDEC160D0497FA9A132BA608584057FB15380825DE6C7FC3C667EE947D488A09898D8E939C4953BF4EC9836344D2CC6B2971B2A21A572B06096F4982D2CC7232D46E8EA69DC83722E267754D777F97F96D5DA74E1E75178084D0E70F12AD33E5F71EF2AFA599B2B
311
EBF60A5BE475F444F240CBFE8143C334E7ED9150FEEFEF7EB020C4DBED388DD1D6A167A76F3CBF119B578AE8CFA7736ACAFA4440A1C47185638A0D2F3EB5BDDEFDA958FB13CE4AA4923D5BF840392D45544329525749734866684BF7F8D9D54D892E19BCA9F829A0F8BFCBEEA6CFDFC61D74EA1A645ED7A1FF241739F15694
311
BD835B66FEC5677E40FE69BD3F91AE402F036537218A401CB0828604AD189E575015C6F3F6BBC8AC79CF6C70653847254B31551EFCBEB5978B9DB85D58D0FA41A9DFE9C624834AA04949D24B5AE6D299E072D152D12097920F14AA92C31C3B97E28B6C2E6E9C23D63043ECBBC0A60FDF5BD0C33C127EA8A3308B8B6AFFEB28
311
B4455BF6E7AF4FC6222728357EB8E46E85053E6A8843AB23295BF838ABDA94658FEF3F832F147046B4ACD6F7D48E8FCC9618582961C898D1C7A253C91BFECBDA6BA18A1FCF70755DCCEE2222F41B76D23CA98D0CB3D95F0CF66D57FFF65E2A90F5DF40FC3187621E981BD0BC1D992787212688976B94A8F0C6EF646624B570
311
B78E068826F87CE27041A95C9A4871FF65CC17FCB1639629AD6A9517000D63AC231F3D741CB8430777E7ECF80CE7A3F73C0F162F7E56AA71F4DA80A33CD6ACEE78E2C11FAC03DAFCE929B106F8F6B3ED2DC71FF994BD9CEF4E9A94896EF1B6E2B7B4978168BCF0847A3D2A4F1B0500B926E634B174548E9FBAD27153FB5FC3
311
6799B1E6C7C38A94E1F9E996796D7B485E635D5287A2AE76FBD11A341DB3F8F810385BB7296391973DC6C37C452A9305AEBBE0CDB6C566DB59FE60C8E94B1FD090354BF51439FFD1B48D725228FFA88C84F686F547107A7A235665A4593B7C34D748C1AC8D56DD5DA861EEFBADDECBBD65117E65851F90351AEB65F0EFCFF4
311
BCFEF24CB7A5879699FAC437A7AF9099186CF006BB923A59E37D7A36A29FD8D2CBB914A5E9D0A8FD212FBF796AE9A67958FF1D5D8B85F78F96219D4714EB919929241B6C018AAE0C02069F8D919961EC5DDFBFB7573E3AC8E08BFB7C8534BE6DE045B3CD63DBD71F7638BA2309CAE398EA3A7D8F98BBBC7AEB367EFA5CFA27
311
A9F8F2F52FE878058E6209C026453F8E7E8A237DFC389E9590F6059B397CFD65183BBF936E86896612A5B5FEE49DAC8455D026218AFEBEC12B3523A45B57B82C9C97E02ACFA1184DB18E48CF615DBF39C3CC6F0B4AE6BBEEA2E39D944E290302FA3DE33FA7E40296E2EF7BF1CD855BBECFAD0FD622BEE9746FC4FDFDE545AE
311
6E3BC234CADF83A0FB76DFB145BF3828AE3436368AC24989454F8FF70A177672C711CAA1A76107218CF948CA01F873520E7A2B118EBB161ABAD432932029628B6761590C98AB590C8C8C79798CE9F715BA696E839E9131A4BB68BE923F1747FBFF165331FFDD4D05997ACD168F12CA75348DAC04C7F509FE83898A8B421181
311
AF492861CE81E4A2DD0A30850CFA95E05F097FF70F9E777310D584A75BA7018922E271DAB1D785671157685B7D383D3E074DDB4F1E44EF04B07BAAC75A062077C54B9752C738C9D804D402E02851F3F89605AF189738C18C021D2139EAF72513824E10DDD3047BACC8521ED7E98B257D1166903B1B08FA6F918FD7E162913F
311
EC7D0EF4787E29C35FBA8C6E2C9C20E9AB30AE42CA2A01A090E7D010C1B5BF9CEE2A304BF3A987FB40D836979B79E18D70F257DA61E808472DD85B82761825779D6B90CAEB0F23360C6F80A7D7D77545E95B3DFF0CF96A827F9B5BCECD2C9698718417EF80FEEDEE938AFF55859D0D540B7FE09435583A6F04874A0C7E8CF2
311
34DF4879722000167F5872CEC6BF3EF7E5A8CC8121E6A359227C8A29C95212F9F735BC72A887D56B8F309FC525BFB4FD767AAEC4AEFF249CFBBD2DE1AB9969A6155C7D8DABC307E47324C1F916C7BCFF40ABA5644E9FFB9238D19ADADA49D9610F01ABBA57E4DFCBDCCBB2B93C8953206C91DE01B0E2651A6D6C31721915B3
311
1F7B7CBCE55466F6D70402788FA91D73BE4ADCBA99A35F17D6B83383704917D6833F0FA3CD45C926ADB8BC17999A4A0AFBCE2541F7B8CF4C2F5FBA611B3E626D64407CB32C122DFF4EF8674D6EDBB86C8F7C6A16D50FA685E2CCA34F8F7D1D8265BB0042E9D7F1F666F7BE5FAA5184DF58E12122A42EF02F461B3F369AC746
311
F96528AD208512AB56844CF75B97F352DF7995024FB02855385854F3798670D01CAC771AC3E1889EC25F61A20C1F8CAB46898817F9C47E2CDA1F286BF2F358298709FE567C91133E2638C8B53975E753EA8BFD3578B5F7186B7BF084EBA3F77BAC3132A5779902EC22AF2D2E79F42D324E083386DAEE9810D1B44A5DAA5451
311
3C7A71E52A4AB9257D975B621308FE4D2141CC3DCFE946C154A3C1DFCCA7629EC69ACFA831634ADDA93C0388D2A9A2DDAFCF957C6995BCE7FBB6DC4EBAE79E63EB08E9A25F52F67076F7093CA545CA3053B5BF576DEAD4E0017143C5F759F32B2D6F145B52B67B48909B7C7FCA6586EE385A2189C16932CB6DDFD9152AE317
311
C430492A578ED27B72D85D40C7C93C097939E1B50F4D67F05334FE9DC362C30B7FF561B95259138ECFD9274C8D695C31B14D4EAA9F3D7FA8DDF652F8C5DEFA23284C799B7D94416DEE81E05A866302DC70192A5368EA65E1CED8BF107A1E2D3119A71E85DC1A7B0C1E93274CE04DD0F2ABC8AC7C987FDB002B6F81757B4350
311
2EF7A0D92E416494FAEEA4C9C090CD9557AA4D532F4996A272B94355C5A0E4974EEA9627476F30809B94D8D8D860062E02204643BEC7D0438AF800FC7E2B26955D595421E83C69E1A07E0E3122285835F014AD538188CF9737CE76D464A353FA55A001AB2526B84E985083693BC76FE211CA1D000679C889E3C009832C87E1
311
AC2EDD05C302557422DF0800E316FCAC86978A371F025A6C7DAA9F333E7BD160403A1A06EA75AA9888FF01504B0304140006080800F284EE5428BB58AF800100009E0500003D00000044443842303842352D313642302D344435452D383633372D3242433845424336373043332F536368656D61732F436F6D6D6F6E536368
311
656D612E786D6CBD544D4FC23018BEFB2B96DE15493C78601010A34B880709DEDFB52FD0D8B54BD70DF6EFED3AC0B12E6442E2716BFB3CEFF3D18E26FB440405EA8C2B1992E1C323095052C5B8DC842437EBFB673219DF8DA659866649B798C078B48AE6410122242F2A4994AC7F93815DF85C049C8564CA0A901499DD886B
311
2EB9B1E02448F358701A9235880C49A0119892A20C89D1B9FD768815CAD268CB5E0355B40B1E47F3E37A2020464BED06AA57CE8FCC20C3C3446D46761A2632A8C1283D07031EFF2AE7CCB1BFEEE916E406DFAC8E36FFD99A9D60A6944090EEDC3B670C7DC13DE86B6B2C5C240D6E503BB85ACD579D513F1B9F9A69DC9CC22A
311
FA80C426D40AF0B21EA168559156B6276F0F726A6BFF04DCD513A87A62CAD41FB24FCB2858B3952E3D852084DA25B9303C15687973CC8E8AAE11DF2836C38C6A9E765E8C1BA1BFB1DC29CDFE518C8B5A7655A4ED7E77291ABEB80DBD82EC866ADE1B8D05AF9E35CF09D7A061F38A986D9EC412B8F0F65E5D81534D9B231D1E
311
5A8FE577A241F3A5FD01504B0304140006080800F284EE54E336299B9F040000341300003E00000044443842303842352D313642302D344435452D383633372D3242433845424336373043332F536368656D61732F47656E65726963536368656D612E786D6CD5585B6FE238147EDF5F61E5BD1498E9A895A02398AA5D1E2A
311
5665BAAF96710C78D6B9C87168D95FBFE7F81242134A968E469A4855437C72AEDFB965F4F53551642B7421B3741C0D7AFD88889467B14CD7E3A834AB8BEBE8EBED1FA3495108B3E01B91B0DBD1F3EC8E6C991A470F22155A72F73CBABC1D4D5921DCD1934863A11F990102A6F61466977B8AC49FB13C174CB3940BE4504A22
311
E3713489B7F82406516225536940BD88E4E552493E8E564C1522225AB0384BD56E1C195DC26FAB13882C2EBD62E1FF9E5B0FCC453132C99548446A1872B62267078F1EF14C3DB1DD1952DDBBB384AD456779F387C51992E0ADCE12FED2622BC5CB1952FC9BDF3295E9206E961AB116DA7ACE45F76F07A26EFC3FD762FD7362
311
FC3C0BAA4DB34C09E682CA5167BADCD16CF94370E331E2F1A3D852008AAD5D64BA2373478338AEB1583B905396D158182655E1B938D07926CF007CC7E85E6709999B0D3827C0BF406BEF55C68CF5579DA32C8C85BE03EFE788787E8FEC95DC85C3E31A615658D81F9A34499612004CE69CAB12531B15A887ACA642C110F8C1
311
A8C1974A85853F407794695C905C688E69B116550ACA946B9B4785FC179E0E229240B62665328E86D5BD2C800CF5D80289F35AC25E3DD51508F4BF9A74A0F5A557BB3D284BC6FF59312E282F956A75C5D453906F48D11A876599E49425602400842995BDF02C4D012E226658F78A710416AC552831FDDEF0E6F0BABEBEA9DC
311
36718CCEF4DAC5A0DF871AECBDD8F448F015F8DA113A473609D1751672B723874B2CAB21ECD6E284E51DCC7D1A47A00F60EC21DC4CC3CDC406DC03760A4E6C772F2F4D561A9AE58C4B03F5B4838701472139EDCB36819A66C472B52AB1139C648956F43E0DAEC067B56B0818F5961D3D446B8F1E1E78C0EAD7EE02AF2895D8
311
13E88AC5014A7B436DBB20F778D40A1D9737EFE45B47D49CC8360F9966B15AABAC802C1005548A93EE469F5D55317CD8BF0AA86CABADB2A009D4D6F60CFE53AE370AFE8C45415B15D362A5A038E766E34B00F8C2E3E7098E2093B1C96349FDAEA158903B4BDAEA665F473FECE72186E3BDDCACCADA31839CD6D4FA7D47DF54
311
69006ED340EBE71DF960DDEE88A3E17557039B58C278A1795BA8079419DA8FC5BA1BAA1A66238BF69C7B2BE4E6274839122B7D00BE8B7D52CF61B2D63216046008C8B330FC10F8907787DEF061F47965BBA02FD8F53BA12F9827614979F53563D0BB1AD67A03DC0E00E2FB2CF3EFB457E70E65A3D7C78E7D700DBB45132AE9
311
BBA5E468CD861408961AD8B00A55C2FCC677F4456039FD9F1907A5B3E2D0EE845FDBA2DAFA88C64195671AD6D282DA2E45B1F50A0D632B0D0B6718757DCC7C84A70A3656F222CDA6DBF07E204AB358961D1BE31E53A82C2C0D56DBF61A5608B5A252A932A1DC6E32462430853353EA30417C8199A662E946A4EF352268B8CD
311
B9A9C6762515ACE8E09BBC031C608A02C4BA89C9DDC074E46E0E26A17BCBD4ED43270D03E3645ADB81F6D62CC07A3243EB81C07E01681DDF2DB4730631E6DDA6CBBD048BE9F06AEB3CF06B31DD6C9575E37E9FF17161342C4C76D95519672A6509E0F5C4E71B4B1916440059F57D0921F496237E473A83E3E4E06353BD9D27
311
593594D7B6707C08D22FEBDFBFFE03504B0304140006080800F284EE548DFFFC99640100009B0300004500000044443842303842352D313642302D344435452D383633372D3242433845424336373043332F536368656D61732F52656E6465724D6174657269616C536368656D612E786D6CA5535D6BC230147DDFAF08799F
311
5FDB600FADA20EA430D968A7AF12D36B1B481349529DFF7EF9A85A718860DFDA73EFB987734EA3D16FC5D10E946652C4B8DFE9610482CA9C8922C6B5D93CBFE3D1F0291A6B0D26A3255464182D920FB4233CC629881CD49C18508CF000E3EE309A100D61622AAB4A8A33B2483F11CB639C545B0E1508438C3D3C0361192846
311
DB7ACD198DF186700D182920B914FC1063A36AFBEE8FBA03FFD3CC1D1F4FC9E151A2AF59F628C5B7821D83FDFD3489305080F2EE04BF962195FB285E9D2DD352320A9E827AE357594914E42B1F5FE35F83688F60C4C91A6C946ED0668E8F244BC2EB0BA6E3BCCFC0B6A4B507F9F9F8D51EB315D9BA9E08D308E89F96931666
311
E577837E2B4172199C68C4FE306156D47DF51C698C7B9D97FE5BEFE2190C3C38BB054E6E8163FB039CB4B993C80BF18D969203116D6BBD26238B821F9BB909AD6D9C71B85BCD8C33D66FEA3D31B4BC0AD45BEA46BBEDDFEC0F504B0304140006080800F284EE5433A511EF4F00000057000000470000004444384230384235
311
2D313642302D344435452D383633372D3242433845424336373043332F4173736574446174612F41737365745461626C654F66436F6E74656E74732E62696E536160603031333432343637D135353035D435313136D6B5747672D275019226A646668E86A696424075B98925A945998939890505A989458979C9A9404130E0
311
0592EEA97940D9E4E0E48CD4DC4400504B0304140006080800F284EE54C55C663656000000680000004500000044443842303842352D313642302D344435452D383633372D3242433845424336373043332F4173736574446174612F53747265616D56657273696F6E5461626C652E696E665D8CBD0A80300C06F73E4B29FE
311
6CDD8A2E82A083B8B7F209014925C9FBA3AEAEC7DD2555D896CB85E51C2A1BD834F6A1F56EC4494C4695278364ABB24ABD2146F88CCEBB89D5321FF8F3F43D672A3B44DF3CB6A1710F504B0304140006080800F284EE54CE0BA8C438010000A20400003600000044443842303842352D313642302D344435452D383633372D
311
3242433845424336373043332F4173736574446174612F636E782E786D6CCD943F4FC33010C5BF4A648931CE9FA20295E30AC1D209242A06B6AB7329561D3BB22F08BE3D769B0154C4D421EBE97777CF4F7E27D69FBDC93ED007ED6CC32A5EB20CAD72ADB6FB868DD4E5B72C5B4BE19DA31F18CB2CF4D8B0546652ECBD1B87
311
A9D46207A34955A3ED612ADE8780B4859DC1A7EEC159424B8165CA40080D0BEA1D7BE030926B311C780B04BCE21E831BBDC23889748FD324E511085B26EBB2AEF3F226AFAEB7D572B5B85B2D966FA248A4143BE7CCC4EBB8CCBBE1AA2ED5692F93A5281220C5E8F544A5D730F9974ABED35614919422908FAE4C1DF435C40E
311
1806A3155034AF708A90F20821F4A238C15214C9855F5E3C62A7AD4E2D9B280DC8F9E728103D699CA127FFA9BDBC371B1B08ACC2393B72AEF1F23EBC1C7FD1EB2996C7DCCC2F2DE71AB9B6DD05B2521CCF498C4EBA2EF21B504B0304140006080800F284EE541AF39F3CE8000000600100006700000044443842303842352D
311
313642302D344435452D383633372D3242433845424336373043332F5265736F75726365732F34363132313337342D353035312D343433332D394342422D4439434234353236413135392F7468756D626E61696C2F302F636E782E786D6C4D90C16EC32010447FC542EAD1C676AAB48DD6E4277AEAA5A278E3A26016C15225
311
7F5F6839E434ABD9A7D5CEC0F9B6BBEE0763B2E417310DA3E8D01B5AADDF1691F9D2BF8AEEAC2012F103263AAF775C44B585822D520ECD5AF1A2B3ABAEB3FEDACC0D3D466B3E83DF44679C4E6911C97CE3AE079D99564CD761D5AC87698898284783E500DB1DDB01135133AE42CDE33CF7E34B3F3DBF4FC7D3E1ED74387E80
311
ACA4822F22D778EB192385A7793454465FFE19415640418EB6513584500FCF812C4B058963C9DF20BE8702E9109C359A4B4D920C23F70542BD83FC8715C89AB7C85F19456B37EA17504B0304140006080800F284EE54A233C2345D000000800000006500000044443842303842352D313642302D344435452D383633372D32
311
42433845424336373043332F5265736F75726365732F34363132313337342D353035312D343433332D394342422D4439434234353236413135392F7468756D626E61696C2F636E782E786D6C4D8B490E80201004BF42E6EE76F3C0F216234B883063108CCF170C074F95AE5473F5C4C06E932E4F28601967600677D21E9D80
311
92EDB002539227A2FCCB80E1168D80A6417297A89C5D6963B7129A0D1E8F2EE73AA7B62BBEB8B27DE50B504B0304140006080800F284EE54BE89762363000000880000005B00000044443842303842352D313642302D344435452D383633372D3242433845424336373043332F5265736F75726365732F3436313231333734
311
2D353035312D343433332D394342422D4439434234353236413135392F636E782E786D6C4DCC3B0E80201004D0AB90EDFD75167CCE820A4A845D83603CBE602CAC26799919AEEEE0D965E2E908050C6D0FCCE04C8BC355404EB6198129C92351FAD580A10E464065907C8D948F8F166375F655BDC3FDC3B4E530A176BE7057
311
BDC43B2A593FE403504B0304140006080800F284EE5487D8D83A7E000000A30000003600000044443842303842352D313642302D344435452D383633372D3242433845424336373043332F5265736F75726365732F636E782E786D6C4D8C410E83201444AF42FE9ED62F606B02186D2F622A1A5284864AE3F10B8D8B6EE625
311
2F3323BB7D75E463E2DB06AF004F1510E31F61B27E5190B6995E81745AC610B6BF1A103FAE4641D1A0E512437A1D6A32F3985CB1CEFAE721798335B20BA7A2124839678CB6B761A0F79C5CD44D8FA2CD8B739964FCFE32CBBDFE02504B0304140006080800F284EE543BE58C640C0100005503000034000000444438423038
311
42352D313642302D344435452D383633372D3242433845424336373043332F536368656D61732F636E782E786D6CCD93BD4E042114855F6542623930336B56DD306C616165A35676087757B2C09DF063F4ED85956237B1D3623B38F97273CE81CBB79FCE761F10A2413F93910EA403AF501BBF9F494EBBFE96745BC103623A
311
C148E7A58399549908BE0F98972669D8C96CAB6A8D3F34F11E9D43FFACDEC149D2292B639C493C5EA9CC0935C403D532493AD200117350502624E3A04D500164024DC4344C533FDCF4E3F5CBB8DEACEE36ABF52B679514FC0DD136DEF8040197AB6950588EBE181A38AB80E0399846D514449CBAA3A50FCE0A21784CA1B4D0
311
C8F4B514522E8B354AA652163B823F8CE0AC863D8BFC001E8251979AF9CCDEBF857E02AF213C96970A46DA4BCDFE9BCBBF55C08E1B50BE415D08F10D504B0304140006080800F284EE54E3603EBE7A000000C20000002C00000044443842303842352D313642302D344435452D383633372D3242433845424336373043332F
311
636E782E786D6C6DCD410EC2201085E1AB90D9DBEACE05D09878023D01A1D34A8419C380F1F82DA68B9AB8FDFEC93C3D7C52546FCC12980C9CBA232824CF63A0D9402DD3E10C6AB03A3397DD192872090D3406ABE7CCF5B5D18893ABB1690CF4DCF02282E5EA8A5BB96FFE536F285CB347F95BEFFE81C9ED5AFF9D5B1FB575
311
BB00504B0304140006080800F284EE54F7D8124A7D000000A300000007000000636E782E786D6C4D8C410E83201405AF42FE9E166B45168009E0414C45438A60A8343D7EA171D1D54B266F860F9FCDA3B74D2F178380E64200D9F088B30BAB807C2C98011A244F311E7F374061DAAC808A41F235C5BC9F68B6CB947DA5DE85
311
E7098D618A30D5E1862A82EFA61B31A36D8F6F4AB35169DA13DD16E35A9532BF5ED99A975F504B0304140006080800F284EE54CA1DF9C9A900000073010000130000005B436F6E74656E745F54797065735D2E786D6CA590410EC2300C04BF12E5DEBA70400835E500FC800F84E0B411AD13252E2ABF27A55740421CEDDDD9
311
B55CEFA7A117778CC979527255565220197F75D42A39B22DB652EC9BFAFC089844F65252B2630E3B80643A1C742A7D40CA8AF571D09CC7D842D0E6A65B8475556DC07862242E78CE904D7D44ABC79EC569CAEBA537E3521C16DF5CA5A40EA17746733E0B6615DE7217475F386F18B9481C510F1F021CD9FF027EA0E1F5C4E6
311
09504B0304140006080800F284EE543DEE336E64000000790000001B0000006175746F6465736B2D64657369676E2D7061636B6167652E786D6C35CBC10E83200C00D05F21DCA56CA76D41FC96062B120735B69A7DBE268BB7777961F8D5AF396893C2ADB70FE7ADA196782C2DF776D7A97B5933C430F15651E5469C55D70F
311
80A4992A3ADC954792C525AE70A1E4D6AD9816CC044FEFDF01FE3FDE907802504B0304140006080800F284EE54F7EE56C5F8000000960100003700000044443842303842352D313642302D344435452D383633372D3242433845424336373043332F4173736574446174612F636F72652E786D6C8550CB6EC32010FC156BEF
311
D8D8B84E1C61225771BFA0A7DE10100725068B47D5CF2FC4AED49E7A408B66676677879EBF9647F1A99CD7D60C5097180A658495DACC03C470454728CE8C3A6BC32F1A14862F6A800C03A3B3B371DD21614D5026A3C64AB583DC7B15A0108FF419C08B9B5A78C963480C7F2F572EEE7C56655D6E3C4663D472976A99DCF455
311
2B078C8C87B1EB8F131A5B7241E9BDA21EE31E755D8BC944F0DBF4D2D22A8B190D7AF9992E9CE24149600D6E1A840FA86EDFEBEE44FA13E93E6895998CFAE0D2CDFBD07C1DB0316F7DE181D36AEBFE718DABFCDF356A1348B3BB6E0A0FAC4E4B3E1B8C5639A5549E11A69A1365DF504B0304140006080800F284EE5470CC50
311
0BF40000008E0100006800000044443842303842352D313642302D344435452D383633372D3242433845424336373043332F5265736F75726365732F34363132313337342D353035312D343433332D394342422D4439434234353236413135392F7468756D626E61696C2F302F636F72652E786D6C8550CB6EC32010FC156B
311
EFD8D8B84E1C61225775BFA0A7DE10101725068B4794CF2FC4AED49E7A58ED6A989965879E1FCBADB82BE7B53503D42586421961A536F300315CD0118A33A3CEDAF08B0685E18B1A20C3C0E8EC6C5C7748581394C9A8B152ED20F75E0528C42D0D0378F1A5165EF21812C35FCB958B2B9F5559971B8FD118B5DCA55A26377D
311
D1CA0123E361ECFAE384C696BCA154AFA8C7B8475DD7623211FC3EBDB4B4CA6246835E7EB60BA778501258839B06E103AADB8FBA3B91FE44BA4F5A6526A33EB874F3BE345F070CD36A43FFB8C555FEEF16B509A4D9DD36850756A7CF3D1F18AD723AA93DA34B3D27C9BE01504B0304140006080800F284EE54972067C7FA00
311
0000960100006600000044443842303842352D313642302D344435452D383633372D3242433845424336373043332F5265736F75726365732F34363132313337342D353035312D343433332D394342422D4439434234353236413135392F7468756D626E61696C2F636F72652E786D6C8550CB6EC32010FC156BEFD8D8B84E
311
1C6122574DBFA0A7DE281007C5068B47D5CF2FC4AED49E7A408B66676677879EBF96B9F854CE6B6B06A84B0C8532C24A6DA60162B8A2231467469DB5E1170D0AC31735408681D1C9D9B8EE90B02628935163A5DA41EEBD0A5088397D06F0E2A6165EF21812C3DFCB958B3B9F5459971B8FD118B5DCA55A26377DD5CA0123E3
311
61ECFAE3058D2D7941E93DA31EE31E755D8BC985E0D7CB534BAB2C6634E8E567BA708A07258135B869103EA0BA7DABBB13E94FA47BA7556632EA834B37EF43F375C0C22D2E1F86EB99565BF78F6B5CE5FFAE519B409ADD75537860755AF2D160B4CA29A5F28830D59C28FB06504B0304140006080800F284EE5481AD9B4B0C
311
010000B10100005C00000044443842303842352D313642302D344435452D383633372D3242433845424336373043332F5265736F75726365732F34363132313337342D353035312D343433332D394342422D4439434234353236413135392F636F72652E786D6C8550416EC32010FC8AB5776C3098C41126B21BF7053DF586
311
6C92A2C41019A8FAFC42E24AEDA90776D130C3EC8E387E2DB7E253AFDE38DB01293114DA4E6E36F6D2410C67B487E228C5EA5CF84583C2AA4577906190E2B2BA78DFA0C9D9A06D46AD9BF5062AEF758062BAA54B077EFAD08B2A550C89E1AFE55D4D5775D125299F3C296234F3263573FACD9C8D5E41D27ED7F3763FA29ED1
311
134A67402DC62DE29C613A52FC3A364C54592C4530CB8FFBB46A15F40CB2C6758DF00E11F646F881B607CADF45959952F8B0A69D37D3BC1D48C6494DE88EA10637043146296A5F86019D52654DCD7BD2B4A27A0AFF18C6FBFCBF613436D07A337C2A3C4892E67F3C4851E500537BA49B7A0E5B7E03504B0304140006080800
311
F284EE5463B23198FA000000960100003700000044443842303842352D313642302D344435452D383633372D3242433845424336373043332F5265736F75726365732F636F72652E786D6C8550CB6E833010FC15B47783C19484C838A26AFA01554FBD596643AC041BF951F5F36B27546A4F3D586BCDCECCEE0E3F7E2DB7E2
311
139DD7D60C5097140A34CA4EDACC03C470267B288E823B6BC32F1A14462E38408641F0D9D9B86E90B226A0C9A8B1136EA0F41E0314EA963E037875C145963286C4F0D77295EA2A672CEBF2C1133C463D6D523D25377DD6E840B0713776FDFE44C696BD90F49E494F694FBAAEA5ECC4E8EBE9A9E555160B1EF4F2335D399401
311
27100D6D1A4277A46EDFEBEEC0FA03EB3E78959982FBE0D2CDDBD07C1D8837F4363A859E578FEE1FD7B84EFFBB466D026B36D787C283A8D392F786E0554E29957B84A9E644C537504B0304140006080800F284EE547EA45718F7000000940100003500000044443842303842352D313642302D344435452D383633372D3242
311
433845424336373043332F536368656D61732F636F72652E786D6C8550CB6EC32010FC156BEFD8D8B84E1C612257757FA03DF58680382831583CAA7E7EC171A5F6D4035A343B33BB3BF4FCB5DC8B4FE5BCB66680BAC4502823ACD4661E20860B3A427166D4591B7ED1A0307C51036418189D9D8DEB0E096B8232193556AA1D
311
E4DEAB0085B8A7CF005E5CD5C24B1E4362F85BB97271E3B32AEBF2C16334462D77A996C94D5FB472C0C87818BBFE38A1B1252F28BD67D463DCA3AE6B3199087E9D9E5A5A6531A3412F3FD385533C2809ACC14D83F001D5ED7BDD9D487F22DD07AD3293511F5CBA791F9AAF03F6B6EDE969F5E8FDF18CABFCDF336A1348B37B
311
3E141E589D56DC1A8C5639A354B60053CD79B26F504B0304140006080800F284EE549B9ECC1A02010000D80100002D00000044443842303842352D313642302D344435452D383633372D3242433845424336373043332F636F72652E786D6C9591CB6E833010457F05CDDE3C03A1917124207FD055772E9E102BC1467E54FD
311
FCDA85AAEDAE5DD9BA3E77C677869EDF9747F286C64AAD3A28D21C1254931652CD1D7877252D2467468DD6EE070689E20B761065607436DAAFBB3469E55045556981BBC8AD4507C9F408970EEC74C385A7DCBB40D87BBAF2E9CE674C8B74E3187572F9B24E06B94301ACCCCB92E447521C9E8BE6543D9DAAE685669164D44B
311
E5AA726F86CB2B8A44AF2E4402565734DB9E03E6A5D82129C227E555A201368E6D9FB77D4D8AA6CFC961AC2FA46DAA2329FBA1BDF44373CC8758249819B5CE84D1EC45E210FE6ADF8CBFA2F955FC33DAE6B0C08AEF50599C33A3D9E712C21977C23E00504B0304140006080800F284EE54A2BEC32B07010000B20100000800
311
0000636F72652E786D6C8D50C16E842010FD15327714C5BAEB06D9D8D47E414FBD51615DB20A0670D3FE7D61B5497BEB810C79EFCDBC37C3CE9FF384EECA796D4D0B454600293358A9CDD8C21A2EF808E8CC99B336FC92013262562D2418381B9D5D971D1AAC09CA24D458A9765078AF02A0618A9F16FC7055B3C8C41AA2C2
311
DFB2450C3731AAACC8361D6741CF3FAD8353222809BC246589C90117D55B519F6873A2F53BCB9392B375D572B7D232BAEB8B560E38ED0E5DDD1C7BDC55F405C7F78C1B421A5CD715A13D25AFFD53C5F2D4CC990F2EEEBC0F893903F2E29E7C59BE519C7D583BED82184A226BA62FE084E589F8137A5DE43F426B1368B90FDC
311
3A3CF022067A10D1385D3096C779634DD7E6DF504B01021400140006080800F284EE54633AE2C710010000A80100004F000000000000000000000000000000000044443842303842352D313642302D344435452D383633372D3242433845424336373043332F4173736574446174612F446566696E6974696F6E4974657261
311
746F7250726F706572746965732E62696E504B01021400140006080800F284EE54D9CDD2D7EE0000003002000045000000000000000000000000007D01000044443842303842352D313642302D344435452D383633372D3242433845424336373043332F4173736574446174612F496E7374616E636550726F706572746965
311
732E62696E504B01021400140006080800F284EE5488E57597CD3F0000904100006B00000000000000000000000000CE02000044443842303842352D313642302D344435452D383633372D3242433845424336373043332F5265736F75726365732F34363132313337342D353035312D343433332D394342422D4439434234
311
353236413135392F7468756D626E61696C2F302F67656E657269635F706E67504B01021400140006080800F284EE5428BB58AF800100009E0500003D000000000000000000000000002443000044443842303842352D313642302D344435452D383633372D3242433845424336373043332F536368656D61732F436F6D6D6F
311
6E536368656D612E786D6C504B01021400140006080800F284EE54E336299B9F040000341300003E00000000000000000000000000FF44000044443842303842352D313642302D344435452D383633372D3242433845424336373043332F536368656D61732F47656E65726963536368656D612E786D6C504B010214001400
311
06080800F284EE548DFFFC99640100009B0300004500000000000000000000000000FA49000044443842303842352D313642302D344435452D383633372D3242433845424336373043332F536368656D61732F52656E6465724D6174657269616C536368656D612E786D6C504B01021400140006080800F284EE5433A511EF
311
4F000000570000004700000000000000000000000000C14B000044443842303842352D313642302D344435452D383633372D3242433845424336373043332F4173736574446174612F41737365745461626C654F66436F6E74656E74732E62696E504B01021400140006080800F284EE54C55C663656000000680000004500
311
000000000000000000000000754C000044443842303842352D313642302D344435452D383633372D3242433845424336373043332F4173736574446174612F53747265616D56657273696F6E5461626C652E696E66504B01021400140006080800F284EE54CE0BA8C438010000A20400003600000000000000000000000000
311
2E4D000044443842303842352D313642302D344435452D383633372D3242433845424336373043332F4173736574446174612F636E782E786D6C504B01021400140006080800F284EE541AF39F3CE8000000600100006700000000000000000000000000BA4E000044443842303842352D313642302D344435452D38363337
311
2D3242433845424336373043332F5265736F75726365732F34363132313337342D353035312D343433332D394342422D4439434234353236413135392F7468756D626E61696C2F302F636E782E786D6C504B01021400140006080800F284EE54A233C2345D0000008000000065000000000000000000000000002750000044
311
443842303842352D313642302D344435452D383633372D3242433845424336373043332F5265736F75726365732F34363132313337342D353035312D343433332D394342422D4439434234353236413135392F7468756D626E61696C2F636E782E786D6C504B01021400140006080800F284EE54BE89762363000000880000
311
005B000000000000000000000000000751000044443842303842352D313642302D344435452D383633372D3242433845424336373043332F5265736F75726365732F34363132313337342D353035312D343433332D394342422D4439434234353236413135392F636E782E786D6C504B01021400140006080800F284EE5487
311
D8D83A7E000000A30000003600000000000000000000000000E351000044443842303842352D313642302D344435452D383633372D3242433845424336373043332F5265736F75726365732F636E782E786D6C504B01021400140006080800F284EE543BE58C640C010000550300003400000000000000000000000000B552
311
000044443842303842352D313642302D344435452D383633372D3242433845424336373043332F536368656D61732F636E782E786D6C504B01021400140006080800F284EE54E3603EBE7A000000C20000002C000000000000000000000000001354000044443842303842352D313642302D344435452D383633372D324243
311
3845424336373043332F636E782E786D6C504B01021400140006080800F284EE54F7D8124A7D000000A30000000700000000000000000000000000D7540000636E782E786D6C504B01021400140006080800F284EE54CA1DF9C9A9000000730100001300000000000000000000000000795500005B436F6E74656E745F5479
311
7065735D2E786D6C504B01021400140006080800F284EE543DEE336E64000000790000001B00000000000000000000000000535600006175746F6465736B2D64657369676E2D7061636B6167652E786D6C504B01021400140006080800F284EE54F7EE56C5F8000000960100003700000000000000000000000000F0560000
311
44443842303842352D313642302D344435452D383633372D3242433845424336373043332F4173736574446174612F636F72652E786D6C504B01021400140006080800F284EE5470CC500BF40000008E01000068000000000000000000000000003D58000044443842303842352D313642302D344435452D383633372D3242
311
433845424336373043332F5265736F75726365732F34363132313337342D353035312D343433332D394342422D4439434234353236413135392F7468756D626E61696C2F302F636F72652E786D6C504B01021400140006080800F284EE54972067C7FA000000960100006600000000000000000000000000B7590000444438
311
42303842352D313642302D344435452D383633372D3242433845424336373043332F5265736F75726365732F34363132313337342D353035312D343433332D394342422D4439434234353236413135392F7468756D626E61696C2F636F72652E786D6C504B01021400140006080800F284EE5481AD9B4B0C010000B1010000
311
5C00000000000000000000000000355B000044443842303842352D313642302D344435452D383633372D3242433845424336373043332F5265736F75726365732F34363132313337342D353035312D343433332D394342422D4439434234353236413135392F636F72652E786D6C504B01021400140006080800F284EE5463
311
B23198FA000000960100003700000000000000000000000000BB5C000044443842303842352D313642302D344435452D383633372D3242433845424336373043332F5265736F75726365732F636F72652E786D6C504B01021400140006080800F284EE547EA45718F70000009401000035000000000000000000000000000A
311
5E000044443842303842352D313642302D344435452D383633372D3242433845424336373043332F536368656D61732F636F72652E786D6C504B01021400140006080800F284EE549B9ECC1A02010000D80100002D00000000000000000000000000545F000044443842303842352D313642302D344435452D383633372D32
311
42433845424336373043332F636F72652E786D6C504B01021400140006080800F284EE54A2BEC32B07010000B20100000800000000000000000000000000A1600000636F72652E786D6C504B0506000000001A001A00210B0000CE6100000000
310
504B0304140006080800F284EE54000000000000000000000000370000006662782F39374546384131362D433333302D344533312D383531322D3031363644444630303245422F617474726962757465732E62696E504B0304140006080800F284EE54000000000000000000000000350000006662782F3937454638413136
310
2D433333302D344533312D383531322D3031363644444630303245422F76657274696365732E62696E504B0304140006080800F284EE54F270F1330600000004000000360000006662782F39374546384131362D433333302D344533312D383531322D3031363644444630303245422F747269616E676C65732E62696E6366
310
60600000504B0304140006080800F284EE5488E57597CD3F000090410000420000006662782F39374546384131362D433333302D344533312D383531322D3031363644444630303245422F7265736F75726365732F322F305F67656E657269632E706E67355B773CD4FF1FBF73E71C0E67EF7576C9DEF3EC995D46C6A1EC50
310
46649CBDF79E192942562825CE965D8A868C2842C8DE9FDFD1F7E7F138F7078FCF6B3F5FCFD7EBFDFEC41B196891913091804020321D6D7513FC77D8C5070EC3FFEE51B21F068154CC75D455CC028A3EA68992803810109FDDE5D5CEC5521B28A1B422BF80741695D5B529DA1C2D058AD2388BDA9F476F7C2CADC939304173
310
DBF48A452BF8A700C0C70C3D121C1AA15A5270C22E2B9E28763651F7DA0D12CE11077B2ECD0D560B5E3DE2368B1E65C5E1C87384A4CC5F2D9FB8BE39E9B77C753783A37998F5CEF1B4FEE553463245C9712270880DF339E0B882A6BA713D865F6F384C842D440934EF264F4A304F8DE4EEFA1E2BF5E2D91F5ADD9613D6E31D
310
DB33ED31DB1D7916CAF091286EA3D31B9CFECB78BB0060245B943C4C040119FF780A74DD308BA9D028678674EB5504ECF284EE814DAED07440BAF649BE4B55DA2890F4D73E2D489A59EE54FDB0A85B59F2F52C4858A02705C4815A792B0C4A996A2023ECB195073E115E3E3647F64243A8338F2000BCB58DA5692C7E7C3D41
310
3F963FEDF3CF00FBB0F831A9D51360FECA43819F527B89FA260EB63C5DA676830AA3626A3693B23F1A17A0DFFCE3EE164E31B5365EDF0C89EF64D8E38AB0BA9A1117D7C3A0EC44F44F4023095E80BA610DE336D0F99593A88BFC5306E72DF98F7FD132ED95878DF2964EA7E43071359FD83B2BDF9C6B5BDF768F0F3C0FC351
310
199526F53D9460A34511F75D1B63E488178569472C91A94497807A3FD4A390C6558F26D416365C3656DE6E769DA9D8FC73774E1709812842DD8EF96AED1960F79D21B395CDDFE6F92CB4EB962A4668C76990E2EF29798C8941D67DA50F4A5F947872460F1F6FDB794E8A29FD7AC0C0D6E0714339CE258FB17AE8535221E346
310
4A10F29A0BE5EEECEFC5675926A89F49EB14E5711894F6586DB5754EB4D5DA9C6437EBA57DB97A24F8B8A8DB295FFD73266CF57E82694DF5166DDF93573AFE9C9C5EB05F8FEF8E89E0A8917B0B3724DB7BEBB53252581EFC3E38166BA131A3A5B42FE2AD00A769BBFA4458D2DE7822F8C4F63D0B8E21B285AE13325F3410A4
310
35C648C9D91FDEB109E73CEDA7BC796961AF79175E1A3CE4C5E8B0D009B0C9E29EFD98BC8E97554E3D8D838424E270F7685226E5AC268E021EDE3522D583E8F20C0BDE2959EF5BBFEEDAB32FE9A3ED0E39F211A86AA9DEBFC68182EDED132AB8BB794442D2D7EA9F4D8BFF52BC4D55BB165124EE90A42D101E67BBBB292FFB
310
4F66DE5BF2300E44546757DA7CEF8932BFC9F92A0707953491A55C5A5ACEDABD9FA1AEA01BAC3DC5A24E22E7C47213493996EFBC369D086ED9397C9BA6C7F9855C7BD5E15BFC8C53DB3D2A4C5901A57ACD2FBDF4D1676E95338B2C2BCE65FDA4C64F5FEFDC7D9CA5AA1FCF11E193F2FDABF0F4916BF13FB916A224380E6462
310
A9815F2300DC49CC4DF8D055CEF76462F4B7A7ACA7365C2707891370BC1D0AA6203C44CCAB47084FEC057F27FFCD57F89B8B9852459798A675C66BD7CE572CAF71FF7E6D7ECF7BF62CAB7B3F1107DCD04DC55A3F9961700286141C94A4F771FEB2BCDA2DDEE0CB0BAE402FF1DB0100F8E475DFFFC074DDB4498AB7D186A765
310
4DDB1CB680D703D47CEB4E72F8CB13D86A4AA68116E26387B93FD6738779B34FEDB8E517EDF2BAF28D9BE93A1D3A164320E07D42E514725C29515FF361754213EDE06B079A2E99EB1CA82A02019EADEEB87B9AF005BD04BBCECB14AACD6B24EFBE482194A97DD32400685FF1FEF1544D1B14EFB1E7F08E6D2CD2AF52DE757F
310
35F5E62332EE88EA26417AD5C3E0E319D68F25414E6D672BD4522B278C57D18F0113921C71D96527E091F00CEB15AE23D24667369BD3CEFA10C7549D930890BA4366F4EBC55F01F746109F98ABCDD5A3EE06619C6AD78AB33E48E4C9BD21BF7478B385EC05C4F8987E2C1BFA0A60EBEDAA0AE0B015C2720ECE180FB6F2DEFB
310
EB822D96338C9B63822183BBF52FB664A7AE57003AABCE512BF77E7E31BDA2E739AC4C131657DDFE5225E900FB56CC01CDE808FA4A9C9DA16AC679656BB64796283D89812B8F91136AE18EE5EBBAF47A73BE3C153EB5D4CD491B4BFB4FE690A4CF9ABA08C0D8AA64220C438C96EA6CA80B58FE5761E697B3A292EB9FBDA502
310
FA863E49FE694ADDFFF9D62C520BDD1A22014147A0903A05B9B729F54272EF83931FEEC057BFF8C8055C279EAC5C0011804828734024F6CFA319C9CC6867C727184465CD9BB7ED386AFFD96B294A85E3802FAE47244602D8273615952B98C4F23F7EAE4463D9D638EEE374A20959E0FE519C4CFB0FBFE5DD80C2AA3F9DB961
310
D1BDE57E67C9BB47B77FDD74EE3094F5DBBE3EBC1FBDB7393F5116263009E2EFE1AF9A221B2AE234C902BF70E9F280ED23E73908361565964333A3F01D0B006AF32FB21AA1316744B489D5A198E85299241735BE559675130955C902A8ED761FC0DBE337A9F91919AF5CE32AF902ADF9AB2615E00E8A94586BA1A90839B618
310
32FF1BFB76D2EFADE6DB1BA04CCAD3DA649E7E2A0219F592E22F2AD54847EEA8E42271011E9074F8F3DD9FBA6CDF88FFC9FC7E811AD1CA8F4557CE4AFC7BBEDCF0114A48689F20A584520C74DA8127124B767E2FB91A6B186246727BE63C9445BAE02088D58B8EFDC0F1072407CD9B89A13F6303B4A928F593AD489B58E686
310
9325790ADC406036C591729FE14021F94B7796BB11848D463536A092A26F077F94639F7CEEE2A724C66EC885F4A24F8B8A0AC321F8FD149BA529460FAA34E4663C02D41FDF80BCA222D42F0ABFF8490F4FA74C673807C2051D8E467B47B616072860069A9A303ABA9B319D58404461401B0A0F9BE5E1E151C14BC33B32ABE0
310
3DDE91708DFAEB15E7C0D593C86BB7D7EC17BE56E57975F077BFD5525F3A1A361D584A75E08CF29FC7B44B2B3085014F3A5A14517377C3F6B8F37E59514C3B12F8AACDEDDA4DFC49BE5710101534CD6FB6DE15B50F11A09472AABA727F0C49D9CB906B158030065F48EB3625E010CEC1D511D0053474B11E6A4F01C0D6EF1B
310
ED3A944FDEC70E0DDCDC756C86545910E0DAE3BE3AA9A404574C2995CD5CAF9549226BC94B4F4F0F5F9086F418F6B32346464610D8BC7391D3C3A3CCF04CFC1FB2A3A3170E369511868F14EEA4E5E438CC73DB1F3248AA94B6B2FF33B222FF3D1E7BF146CAD229770158063BCE4F5391964DF62F7E52A7BE0EEA829C9E13C4
310
C147D6F93FE59E111DAB5E4594D6F3CD1AD375EE039930EFE5AF2BB2D41C83C7DABD8C659BAFBE8FAB392CA634F3D15C1D945DB4588D2B0824A4EC928AAC565557CA2F0DAA588CA5BE30B3A8004F7BF005E96CBF891D7F18112A3619FDF530DC8AA64954258E1811789B5189B49B4EB53F5F89F7D37523894F3EB57B373763
310
C91E502F52CC99EB7BDDF933FC324C4FFC2561DFFA7339FAFDD0A4BFBE6D3A8FF9ED1FC49898139864602458968913181918F719CCF5A68B2EE9C1FF050E34E63107003B8120FA982C21B30A874E4F5E4B38D5A8290C4B8D9BE48A0BE31EA995BDC37AC6DE90BA17D259DEF53605D55922FEB1855D915B659FBEB350EE0DFB
310
2F9F766E1C84CC8964B75D08667445EAB966015F63A18A9E0A325C1B3DC628C0D3CB60F767FA93CC65F25458BD23C3B312716E5F40E5858AC06EBA9AB14F95DB99147B832069201541D09A0D856E12C629CF32683760EE855537D1901988D5EBC156676C7DD51D7207CF3267AF1D76C2AD867315E44618015313A98B19941C
310
696FED3461CAA9B5415F918556D7802EDACEFD6B2E45853A9735DFC9DBF7E440F9319F8B6805A973BCCDC76C069A9144E51F187EDCC12FC31B5DEAAF0A76137199B106EC84ADA6B6EE697D4E6A96E007417F4E880E8B1E89B4BCE9D81EF611E2ED8F0C1A6C25F620FAFAAB656A7C42D464880E8AFAB0E0FC8EA38CA9A8AEEA
310
EE3E4648BA4680270A89743CDD3E6C6CBF34B7B640EFA285ABC7EA0A1E28F3CC963D114A80123EE66D0AF7D5380EB41909B605AB4765B709B808590458157E69BA1378FEC4B48CAF6A730E3BE3C5EF2DD1A5EAF94B1DDE50CEB55DDFD7EE9A16747FA4B223359FB1FCC69E1194892BABB93A1D5C4E807AC0EA2E30180811E7
310
7A2291F6E7F7FAA5E0F60215BC6024E48DE436C511F0628B8CA189982D4D83CCA17D305A7E923C37941CFDFDCD93ACAF735EF5F0E61BBD3E6C41A59B242790D3A3BAC7064DCD89AA2E37214EC839820949D5CAA31E240D2948E48F690298974A96BA9A8432BC90F5071D6537C9666EA4564796B7AFFFA548077BEEA75F6308
310
3435074BA182F3699557397F71548383FDA8CA34D99B981E72835ECDA5DDDC151315173D05A21F651AAF8524E88209E2E7A737ED1045800CE3390050BCFB8BE588DF111617874C62575039CA588EEFDEFEFE319B739DE2EDC147092A262611E159650E787917885EF08F1F51B8F2D8A71D60B58B190FEF9541A1BE94BC19FE
310
A50784DA1419FE4B0FB51B8D36B5FF8E1286FD8AF42B91E59A5F1CC4D60174E764045FD8C57B18209B217F89A62252BD20BE0E63E12B8E8F029FE19E0E8D0870F58721A557082250D5424F7909369376E41666C0EE77CD87CB283F661D5FB6D0DA023CB67320A20DC7BE661E9E1BFE5463085C557DA1FF9BE835733766C3D1
310
39F2CF9E2208873AD0EB4814DE9E6BF2CAF81614D4D43906ED1C05A3265CABBFE192770FC2F64F940CB6B17B5F166F133C9AEEAD2641807C3E69515171DD74C4A85311513D6EC9530B3B601B6BA3EBFF3B5C3D2F7D69765141E345F75433953D013ADDF8F6AA7DC3F4A7563FE5C7D367937E2900D7EAD0F9FC9A4A1A9B5BDF
310
1FEF08532660C01C5D6DE22199AA774383E306DAB87E301ABB7D213887F9869D4942D0D71E94B27EDF216A318BD488D45DF84529EF575AF3C3938C0AAA0215B01994153E2054A0B894DA5C784980633AAD48576957CF4AEAEAFADC7C587368551C73DBE1E57C58AC713303A8BFC258BD04B51724459FF9E24C03A81E0E0679
310
CEB9B348C0DC998FEB9C6D6EFA77D247CC8F92D3848599ED89A23218D0636465AD1CEEB7DC140D7426F83491C4E8E8281C2FB35240918FFECE880CA2A42D70E8B20B34DF5221C7DB0CF90ECCB9C745B37A47E9B716FF7A97B7A252C1F3814DC7B1E1A7F72B8751D524EF7CAE45B0C73B3BE7D08ED39781B380DDFC9AA4A474
310
9C9493DB5BAD07A6EA6C092FBD0E85DB004DF06B8C9D3089C5320187E4CE1846158C7EA7DDAE8AD9AFFF21AA3A1026BB06A259845E8232DEE62811A4DA9CEAB3A4887320B76E2AE5615EAB7BDF738CBDD01F1E64064BC13D9EC53576751CA8CACD58B3CEB0E6CA585BD089B2A59B9FC101403387AADBDBE70586B93D64BF3A
310
D4453EF9C3B6A93817E8346991798601344F79A83C51F3D50F7BF2683A3605F51A72449489E0EE6169C749C60B1035651103AEE24D24E51A759C840DD3FC6504DA6FE107510E447B43461C79D22970B75DE5E1BD3007D1AFC619A4A4A69B5626AF5E9B8374E20677F77E2F8E73DF868E8BEC7EBA7B6A75EEF7205E1AB9486C
310
B642741D6E03FF13FCCEDB1C4AC129886268B01CDF4B124AF797CF784F3C6DEC97A17D4B558070A0F1C04DA4FF9BDBF34159AEFE958479824B3F58EBD1E19088A2AFDE501B6F2052368A3FD0E650A179EFAB1561E1D27527077136E652676C3670F42DCB3352F48F6BC86D2C3B0051727E41A0A4DC6CE2BE9D47F5CAA2935A
310
3C0539AF080665997194ABECD723B08129CC5B6B21D2E7D54CD4D12610E7E9FB8306771A89576C7A982002775ED44F3F744CF21EEBB27A631671D921938AAEE3EB0D19CD1E083727F607823E817BF599DCED5394E37EEBC2E88782E638920CA641EF74D4CDFCDEF06F4278ECB18E31E7E9876F2D783C8BF429C75395F57E98
310
C2B495A3DA077EB3AC3C158608B6B57FE3EA48484D9A480096FCEE0DE880950E7E5A5714131C5C41AAA29FD19AE81AC145FA1B9E85C7169A5AB837B213493DF7E9AA4B5FBF9CDEB36EBD21EF1181B7CF7366AB2A951D01E37AF4EB835D1BE8C117CFBE7625D2EBCDB0B20C5A4B45CED0BCDE3EE8DA9DA78C2E21DEAAFFD119
310
7E463C33CC6A80FB785669B856EFF7A8CCCA2841B5A5369173320B1170C368B2748D81062EA0296E5E2D95D7667A4A46D98A6FF475C76AAB0A8C8D45E226FAFC9FE0133EA9F60111F99CA81ACE03A1D14C89E8B0D69079C91464FA1D99E651D0EAF606F345C42A8A1AA9BA391031582B96D5B4176A77AADB01F12FD298A75D
310
EEBB2C82F0B8650E880722F8DDD90C56A7A058E5FDEF1AC93545BA27367C76F5D8F9690CB6F8DAE141EDD7971F0FB548A2AE435F224D6E5954CA155512F7332029D5A1230854B79F258EC5FFDB09F5F6343A8EB193229B7F7E79B3E48F8E183860B38C8269D1B53738FF1E0BACF6AADA6D4869E9DE708E79B5DADCC09B1BC7
310
6F649731CFAF59A83FD8BAE4C749D66FA87A3810D4D62FFE826FA400C0F325D2BC0F3CA35F5847B82A2ACC7961745C823E4D863D54460AF792CE6F79B5C7A33B25C3AEA6CDE15A919B6367D781E9D44F61BF828672594A3E1D9EDD6DF179A81F27EAC05B936575D73E05C209DDD2115CFB705DF9BBF3C911589B3640735E9E
310
618FC9C36A7326C82B2205E244C55D56FDB9D5DC93CE958D4BF8174D2B3DA54CB3C09F2C2A6DFF73D23B2197355761AD421EC581284A7EF8DE2CE3497C0C804D49B41DFD6A7360844E5BEFFB495CFCDB97A4595911CDBA623274CE852B5E278AF0BEB1770E9D37CD977B2766A7DED0E94B840E1E95E8C77DE5CB6354AF7871
310
427C28ADBEEF7BA0A28E19DE9ACD75F379FE373EAE6DDDAE3834692F9C2B03B4FCA8FCA9ABE8EEEBEBB725B88A7C90941E850682CA04061A7DF0CE82ED49BFAFFD42C309818FAE14755CAAE78B0F73243ECCCAD7DF58FCB9CDFAE7A4D3E6671A613639130D056C8383C8F4FCF4808C331E544DD26E4755D09EA05253B3049A
310
1E32587CC25D72E073E2CD96D04A71BBCB0038FEC3F53D254199C3CDC67CD66640269431860225392B2CB3ECD0B4498AAE78BA1994246AE1EE78F2EDFB79F6C6CB6B5E279C4D373FBC21CB2698C9ACBBEB6A4BB6B39E16AB0E421CCBFC7654D81ED86022F9BB522146F9F4772E2D0E4FA70120C95A85A417BF5078B232F475
310
4363EB1750B2AC2148EB46B1EA72AD9B4D23ADCBC589D70106C3EC2ABEEED84DFE28E718C6C83502C28E9FDD3B09DA0A6F6F7B72B706A31C9E2A331EE70DA56A083D2177BFD63C55B11D8D949FAFCF90B23A1E24B9B5018B9A17E99F2890EC302F330FE7936E2C23F0D237EC8916F5166AB84B62A21BB0B950146962D754F9
310
2CC2C8877BED8FC7B7B25726DD19545392570B3A2C66B58F027BEF412E552D12A588C4A3CC5C3193FCB3485EFFF700D0B9EEC077754A33DC1FB9E25AF814628F91DDFECB667D3F7690803F38D13F8AE39353523BB08FC6760144AFA2CE28236F65EDBB3D5F59A57D612B99E3D7E5F8A851666BF9B5A6658EFC96EEB37A378A
310
BB0EB3FDDF1303AF32C41BD1C8560745D7BD81066B0D6313359CF488563D3BA3F8E2185D1FAA3EBA1397C9D0E3DD232180A4DCADB6AF25DB3AC3CC26589C8239E66E81547BC7E2F328F9884764CA37EB5DBE390DFC03A5246B456A7C3684C4377D0EEF9A350680FA9A077E8B2957B489E09AB1AD41316944C2254B5984830F
310
691C93CAA767EECF976FA5647538830B5E63236A6F0365C1E0F3E327F24FE35EDDBD7360B0F7374837409F7A6311BECC12B7026D4FA1AE204FA3F5FE904B1F420C7A9044AE58E403E7C4848E7DA25DC9EDAC79DD756FAA26B9EA83ACE8A214A2612A22AFA19DAE7DBAC5F8CDE1292A485F98DAC731A29FE01A3966E96BCB9F
310
B5A4C8830E1B9AF0C54B87FBE221A097036E5D28D1F869F810C06A9BB0AC0612F69AEBAF893C6E7AD59460208BAB3A6B09CA4F6BDDAB8CF0D1F84B72487498395A70DCD754796E271099A567A55CF242BBED64696378BB6CF25EF0FCDB589F3A82F1116D010A9AB9FA4358809EE0C973A2B4229BAA876A70B03AB49CBA7FBE
310
71DB1832FFD32F9BF2C8E98075CACAFB36921235D0F552B6A67E94E094097A5D7DF681B40623DA535ADA7A9AD8E9A62407D7C9A5AE51D62A17A83A23728DE86BB56115804D3F2675F2C6B87541A0FC497BF0CA86420F558C9859EBE9FAD62747E323E3AADC03FDCDDFE7407B09DA90B44E3185723C5381EAEF589765E2F7A0
310
99BA46695BAD60CEF3491B8A171F5F56444F7CE9455312C3498C74173AEA0214EC029833B34B650CBB5A5508D5091665309642791708ECF27CF11DB3D797D6CFE474453BD4BFADB768094B2147814D81C7CBAF8228DCAF5564B5891F5EF6A860EB2E323CB82AB868D8EA048880D63B0DE5341F1B3D53297B928A11E15F25E5
310
148990F710747C3509ED14909C552EBE3973246FCE55D00564D8310BC3EBC5085D08D806799B77D6C57FDF5E55837F9E934F09C03C729271B64F12D0A9F9E938107CAF7BF1EC8CF1BB9B42363D33070F4CACB425E605DDB0A34A12BB936DE286B9887A4E2E558F0886498BFF49C311D96C277CF6A9FC0D75AD0ECC5226D7E0
310
E3572012E56D7FDE4410CEC7A6D0F997F225A2055B8B92E3956E875AE4993CB3D4C9063AF98FD45E1BAB165640A43439A2C9181A7C355B297C0A0CCFFAE19B6FA3C2BA238A885FBC98B8F6DAF4B94B97304878DF4D8BFF6A4AEDF79E90ED4E68F00CD7299F4E0D83E35601AF0CBEF18C1E870E74758FA91F5131075004DB3C
310
FCF09AE1DABC11957FD9808C92E8A678CE9DBE40DDA0E0D1D505AAFBCBA208232BFB6FB3704E8985E61ADE53DE74152F5C7DE74B1DEDCD37DC3E8FB30D7EBA8B9EFFC3606BF90B8D438279CB7709FC7C00D327F41817EEA71CD9E49FE9C8C9A81C70915D9F0F15958EC5AA4C3BBFAF46986B90F188BDB24B89DE3C6F29EC3E
310
6F66D84856EE96A35E657CA41B41EFD8DBFA16AD6E91439EA92B40B21C053249F51AE50EB0B24C770FFAF40DF12C8436366819C48E36547D4E7B72FE2BBF10828583057814A668BDF183F6B2E58DFB151103E56303E63D00F39C27C4661605DB644D19175D02E3F0241E8FC3458D17AAAADB117CE9EEA690D0DB01E634878C
310
04C2C9310B69FCAB831151E3AD293BEF6E46B0ABCECB50F5939B39C613D41E81FAE8D34CAE3C4566B761D37185FE864AC32FCB71AEF39DAA5BAB88609BB980CD2F07A8F941653B529567726E2B2A58D079DD57E1E5E31426CF184A04D7B03B985F276D47406AF276FE32E3328BA866EB1FD39BEF57863A317634AA5FE46740
310
9B3873F5069EF0D71AF00AD189D17BA1974ECDB2D623E9E14086386A6AAB5807825C37B015BFE892AFD154920EC437EB945D958E18622E1E0FE2FA06557CE4BB9BBD05A2D40E774DA2B65473791E314B7D6C886820B2FCFE4AA272B3B8B15E7344A145E8AF919B5454D89D36D413E87211186BF6F645E5EC94DCCE8E1C7990
310
22E4EC9BC86D7A0F2AFB1FC4B2CE48F84B3F49ECE65BAD24CADCC07EFF39AB06BE9E6B27A059938EA7208838455383DDBCFCD967DDE4650EF92A14FF933C975DB20BD7FEEBC4487576485963D757D16340D9599FEB362F775F38CA4185A86F74B629C81B133644A3B18FD056E997E0734F9BE26D11C0AAFC669E2AC9FC41D2
310
81F8B2E1C35AE27BCE05F3DA295488096688719D974DF1B5D182DB7792288697F8763CFB43562C1CDEE11C4AABD5C22B6E33F6F389CFC3477C5919DC0D533F8A7A1846B7ADB60ABDC26C43D0CFC8910B7C15EE22675BD02702ED39DB77A87A192CA7A543E6205B979B9F5A6B512A3CA799E198B2D5797C0AF8D1D872CA455D
310
4D431A7879D4DD76110B5FF7F4176B54477A9EB5E4A5D11214FDA585F0382751D8E2582BA5D2075053298FEB8F1537304E32CB22C2E2B693DC0A760B1DFCA751BDC445AFDCBB12820ED85F6D5298933C7EF1211E9E057684056CDA3FEF3BB6052355E162DF27C59E965A8DDB7F9437EB72CDDA3A090DE65A5B2F50326247B7
310
EC67B73ACC7047FC9B353D6EE990F772207C6EC52B39DC2F3C0754821DAB559F7C1809C7D0DD5B0499D0442E0A6E391B3D5DB46D11E731E6794EC77523FBDAA242ED67F9FA1FB684255671F63C9BCFE6E7E896D51001A6113EF2298BA494E0B0980D1FA5B9D60796554C02256B1E0345FB7C6186B6A19D2DCA270416262845
310
FA4F42DB5D9B0A0B6F07FCA2E56C242522E001E0CEB734AF310FC8BFB57E38E03AACE93B3326A2197891E68452B26A6307FDABFEE0223D3C03C3C73D2D5BC054C8311F12004CAE488E5C29287F8156A2CAA4AD0D7BE6B97264E4139F437CE73ADF52E5134C52B819777C18B323A5924E4F67AFD13B1CDC3A61793A79FAF5C0
310
CEB718E441071E797C6DCCB9EFCF7E4A1E9F3DF3C2F9C9E8294E9586868788C972857FB0556D7A26941A7EEB9B580AD78EC40B85DC906B4120A563CA3B87797ED612D3B035962BB75F6515A393F4CB057F564CDF54F2E5A024514E6A1F901DB80C7E70B1FC05E356A7E72FABF4775B3E3FB8F70A2A8E7B6A94542BB3041579
310
78CCC999E707A29CC795E67A59CC546A5D47B368954CA7B6E75EC9E1F6FC73CE3B4F71F8CB1A6B15923D61EAAEB14626AAA9D04A26EB9C66CD1BE86CA31A5D8703DE04CD1EBCE4F5CCB62F93909AD11E55799A781A956ED27D3E738F4538CB04ADABC7DAEF20BC35BA6A90BCC1DC61BA05F20D8832FFB9BC9B15E2DB838A0A
310
FBB7E0C82A562127E0446894F427794C3037186F622BF24DE1B00AA10A23BFA47B2A180D6DA5AD6F7326FEB8C100C2D7142EB2A0B2A9D1008A09BA343D70E054AB69E2A7EDB783CBD92537FAF4A44D1296AC2792729104B3276C276C951D0CF3CF3F1E6B017720A7B8505A5FF9589365979678C36F1BAF759EAF57C60F1FF5
310
FE9DCF5F8E764FF25A2D06CF25117A8FED51884C13B2B750DB0E4F5E3D64124FCF11F0AD8F1CC3B3DA4B38ED22BF1CB2585EE6BFEBBA63FBFD44F9537B9B37BDD6B358720F98A8125AED4349CCFEB0E135F19E208A04CA7E2B10711185D72E381F448036EF57C9F874E54A971CA37A639E986AC0226DC5AA00D5B14FEA9192
310
234B3DE617814FC221C92F33F1D392F297731B567FD98FD91D989379AF567A65B8ADF177591DB90FBEA99BF4ED11B16E50A0AB1DBF1156D034BBE04D69D08F939D8E92BF525A1DDAFF80ECBC95D8F45D3FDD289FD23F7D8B452F8EBB34EC082DEEE68E18EDDF072060FAD2AB1504DD4879BF67099FC58F6E9DEFBF645D1633
310
4A3E9A127C6F1AF6132CF287E433B43A0EE93812B4AA0B194E03EE3FF91EF9C6ED0074A2F6EB18A96A7C9890B1FCDA1F2095E944DB911ED54C60DF16FB74C8CE9BDC7C54C4F14078CF73C2FFF1F1BBCCD7CF64F71407EA1683DBC410D226627F66E509060D5C0AFD611DE681D509DB8DD12FB1265B03C6F5C55FF4C30BD941
310
87FF692B4F152982502F193098A789526A038AB529A52BC0DC4FB6285CBAC10A8B8DB75DCD9BDABBB221E27D1F8DA9F5EE5926A1C8AA9BA9BC09239C6A7F12914EA3B59EFF7AAEC3FFCCE56F1C5C2980AD072793527565E774F4631DB178CEEC691B1F367BEA0CF2907E1D6B854D527065979DDEF002D8B2ACEA7CE21AE297
310
737EDE1D45B31233B73FEA35BCFDD0B09721FDBAF6432681F2FD10C3E9EFB246FD6E854B344ACC9D8A0EEF876A7314B49B6A499FC650B099D650DBFEC7638ADFD245E2B7839DA5AC5F7D5623FC0ECEEC8653FC9B2BDD1AD4D00A566FBA7186DD3C9CD26512551637498CADB950FEC71ADB9A5524285DE328B8EC7EC75D2345
310
AEC6A27C42AF6D9B92155315C80DBFCABBB7DA0FAE425C4FB896B15C9BFAC4FE67DF5A23D30C93DA4D8F36FB15D100050DA6062E22AEC5F4DAC4F6FEEF97AE05DE63C6D38F9E068A20BC5E3B6BCD75320C5090924E7F93640A7735B1A43451C2D91EE62C6238B797349E59890AF3A520DF4A87095F3ABEC2E61F0593416CE4
310
6CDCBE0E00E2523FCCD04408588B5B6C9DB6459C786CE378770B54F51DA3A5E1DF2A3349BEAAC234A6CF8993B598B3B25B4B113E353A4D750FA7534749430F3EBF2512E7EA3FD43C6AB9A1F765A58463B306721A15D224FAFE8C6F5E3432D57EE697DA0DD5A9D4866A8BCCAAA9DFF1F06047851408FEC060471D0E3EB86BFA
310
F46E4B5E60311DC3E3CEA147C75CF971BE74689507154FF2D2E92F15CDB2B9182B11459FD8ACAC5A85F174BC94A7F4EE4C4F5CAFA7C02E37BF0BC77B7DCD0C047BC316F562A01A441AFA7931CC84A28CB9F4AA367EB515778F29BFE61195FA671F4352E5E46E3A64773F1F76EE5EB36D7BCE9BCEAD837A4D77F8DB8C92AEEF
310
6711920D7C7D0F76B0FD0EB7AB83724CD35BCA7D36DDDF5FBB7FF6F04A91F3E2BB3B8F1A43CD659639507FF6331C5F697BCC782AE57D757A27D97F1AB9E0AEDB43F92F1B2AACDF5FEC8ADBAF9F814E2027003BA2F9E144B1938A7A04050AE5D953B82C45619165C813A10E76DD6906B3C16438064D14CDA713AEC420034613
310
E1AC7241904A49FBF87409AFB1FCB9B72FE7933A87D8FBEDACECE4EDCF6A4FE9FB94D5DEB74FAB7CFEAE17EE965DF980DCCA2D04134994F9A2E94D2265DA4FE6AA7B7AC15FACAC2B5ABBCD7DFF542C5314FDAB2E1B9D8B65220B8E2B638BE008E8DCA22678C820C5053664D15E89F2D735B51A84955E81A443545E9FF787BE
310
0FA700A76D136C27DA179A7C6E8939E01BE756E19CB292798063D8B97F44E8A27BCF3A614FEB8BE974A718E86F7EC99B53CA35FA24F61F2B07266684623A3D4CF073E511F3A10A8FDAFAF0078C577F4DF9D339FE7862E5FA47CF4344209E5BF76D783B1B48E152AD281B15FCB934DCDA49CEC5706B1EE8B460F435324A5CAD
310
154725E21AB8044B75A557A79F6C807B9340AA3D92503E866F4274412926C8C504E4D5EF8C0E68DD0B028781A6B4054F11CF18941F101C57CCC796773ABC8DED9CD91FE5788806C05E548895354AEAC96546D55B0E94A59F148D061F42AA398D822CDECA4CDE79E13469BDCC44FDC990F366BA5978C15F97ED80CBFD73B0CD
310
9B8B83A4F6845BDFBFAF034019473FB9A63BD55D3A4A7284757071574029A4D016DCCBE95DD679EF3C4880BF169422F8C89B68A988D2B13793CAED4F74DE7486C72DC94DF46B8E93D8E02EFCB1FF9B3BA10C8AE7F653DF94F4AF466CDDCEF5776687F7C4C14B63E4EED1719DC2EC482D7DBCC7AE518CDE3D5FF86D39000EC3
310
673C0044E1D308BF05F74D1B5F033A7D1BE7F74BC55BBE3E4A20F920946CA0271EB17BD2B80E5660ACB8A29A79F5E4BBA49D4D945B6EEF4A7EFEAA65E5555BBB57A7E15D2F83C69F30BBB978D2B39F1F26FC097424D39BB33CA3D87ABF64E307938B685BAD44F71556A30B7E712CA4FE600613C3E554B69ADE949A7CFE214D
310
F1FFF05CB82151EC6FC31950239F94CF7AD39DC473F6EA356E5EC2C4EFA04383CEFE985A127484366FBEE3C0EC4FEA363E4F6632AE781392FD45D67B63FB8DF70E82734F431FD3443172A0E30A83D60982D55FA6A2CF86DBA8382502ACC6CDEF3B907982EED1160E14863FA242F9757347E1544275CCDCF71ECD5F8621CBEA
310
326B8BA884AD7F825781923E66971F04010D574C541D8427A438A37EEF8AF88240EED7362C953F5A81DE2D56109CDE2524EA0F5D2F87308C0C47BD97AD605878AB8589E17CA83930CB5E0DCCD75853D68B1AB136594926DE426C367428E9334AFAFF90ECE221BB5DC9E5BB53D2CDEF954EAA9CD814F0E5725F1965DD458E5F
310
8487683AD86B9D0076BE3EE91EB1CECC5331A67A3F79D8B27587C12EC2A6A70474749F27B4C0BBAFB94B34189E88DC18964BE4121B9137FD516C7755356E50D6714E31ACD222621EBBCD1CFF81D87479056A9DA0E0B8EA19D24CF937DA89F78E8650CCBDC110AAB6C4E46DCBFD0446BA9E2060E81F314AC2031E88135E5476
310
AC0160EF5C0DD2EEF1B8B5CB2D198BE9A554A9093B5F7D7E4B5407DDFCA1D9C152FD97F55BFFFDFE802954DFEC8995B983E28AC92F1971E28F531DC407A1280EB125F64A72E617EFB27DFBCEDCDA2D6F2BDADA36873EE46B9BE1782998C63DA7182BC383FB6FD15DA472B175D7E8B4FC88F38D6E07FEAA3FA3CBB8F6B449EC
310
F14D2175E5C5CCA3A42ABF24CA6C9395AF74535F4DDB38CB84F56614B0FD32D7E19CA5CF988DB4449C40E23DF2B16772594554579094450F56F253CD25EA7F77366FB1CFE79696C428BB64D5A41E986189427E5E4D7E2DAE3D5BB4972B3DC44EAABDDDD63A2264ECFA5C786EB0EE1FDC5BE34FA0F08376869FD1E61EA06CAE
310
15191135445EE8F0394161C3266A596AA035572BB0C8876180D8B9C77D307DF9DCDF7365ABDA6F3A2366436457A4DFC1F259666569A9E4A79C817BDD5610E5200FCE894A358EC72858D50EF67545DA81C6FACE3D457BAF70367E1E6BDD9A952FB4F56247F58F523B97E640246051A72F79BE42FFA0B3187F63097F91C48B86
310
8586F714B0EBD5A00A8412C1236E1298F60C72BE6C96B82B404CADAA304AE9F303176B14BA53FBC2D5E86377E35542019E24D97B96A49B2C0E5006E7795954DEAF5DA58958839043C6C70BD3B1B33B6DC5C31316D8A6923F142E26F6711A2258AF977DDF1F970ECC4F1F2B434B96D81BEB6E89BF3BBB3C7C8CC80505070723
310
D6D7D7D3C8CA27CA164A26024FED94B12A86031867241DA53D929636DA600F050BC40CE48B8BA03D69224720DEE2ED2127390BDF5E6EA64527BBD4C4C63FA76BB801FEEC0E61218EC98A8A86CD8313781617877E66692839B9468CF4DB8E50A73986E558E309C0D6F676F921BE02F1185454DC75B111572FF9D27D85EA14C0
310
5AD7271225B391C4275659CA4A43759D0BA44639BE4C30A84DB7F67A41399FB95CBF923B1B1672ABC807C1590557FB18D811983FA97F5E609516D62281D38B1281F68FC75528C35E4CD7DF0F7DBB5E5DD69C414EBEA2F4A5B241B996BA77AE6C772E367408C633EA3E438B68563EA8BE7667F3A4C4FDEEA52ABD78A2820F44
310
3B7914A15F180018D231E64519C56A12F6CA7C8DAE18F06F6B769DBF92329EF6A5D18FBCE600F36BD8E8198DE5CDAA96181F3A756EBA5501CEE58F497EA4F418A2B82565B9BCC611713C0B708CCA1F398B78C5F7D03B3437CC18F13061F55C7BEDADD5ACB1DB0E36D3CE47FF6EA1A563A57E9649EA5D14D1A50EAA45746338
310
1C073777EF1600607BAF6428A7DDC079D47A204EF1E1F1F0589FB054D45E02CE623B3823C317C601E589E22B1E88B448524B86A82828E32345EC18AE17214B42F8C41C6D428016D9BA31DDCB47572561E5A402E5BA4FCE55F78AF7268524AA04130F3A20BA5D1E9F9948EA48FC8F5314FDB35E21898198060034ACE5E3E2BB
310
CA34092518F275190AF65F45867FF0900AA4B81F25427414C372BF51DC29AA855C5428EE1EEDD6B849AD60F6E73475C2D2523F8A2772C840A478DED18A8C5C91B085F255DC4F54EA7AA8947354FD17ECF8FB3B4A0DE7B483CAF3A1165EE05BBA413E5C1FEF3DE1D6B8F2F3F3251C17D9FCAB48A9AAF63AC773A0E413BBC46A
310
9ADF84A566FC920E4D8C52C9769EE3301CADEEEDD92B312E02E2A7E35B7F1E7D203FE5A7D75578B06E99D0E46FFADB8FDA17ED8880390DA29094202D6F645F76F6F96409CDA05495A96E84B04A00D1A6C6C81D7F3DE9376E828CCF144EE50E364ACCE7237EA0BFB5607ED1AC3CFE73794E5B61739D14DF1743441B1AC98F00
310
ECEDE9E7301FA29755FBEFA68C91EF2B314CF510537EF1ABFC9A762496280B546F5EDAAF8A5B387D469FC9A878A92828C88608453ACEC6094DCA54111E7AD5B2663DFE2DD151B7F123B9F4FEF8EE36AB125FD7AD52A59B1B765B3E3F73E3F73DEA93875004D2AFFE3CDE9493B87A9904DD052028949041A91DC0E1BA47BA71
310
4343FD5B25E0A6A09503AFC17C790058A836A324FE31D7893512E28230332F153181C1E018E1124EBE1BA262AA428A518237D1EA7275E48C5C561BD19ED6912EDD8367DA0F31E40EEAE9683DA9257525AEA7B632B97119E17145A90231768A4F3B9120FF32E8319B015E3CBE26F1A754177D8185345817C096B0CE443A955D
310
13AC15E1FB5DEEA0239EC32A3C92241A237B0B02FFCB4F93CF2B02570C8D192E2F2A68CEEB42F12E6F8CEEFF46C251E22B4341C56FB08CCE550E7A9D6F4D6564B9EA52A83D5BF2C6E03FA19D2775E15A8A7ACF30A13C259EE7F5EF2AC3BA354F1500E1A07FC63FB4686E2F12EC69719F9ECF5FE3F35598DF2CE944008CE78F
310
0911BA5BE5D0A34E0098FF038669C26030BA9B300303039852A8F6F496341737CA7E0D2E3AAA36DE0A70AA7D9CA0D54D9AD84B18A44C9E625475E1C97B93BEBB38DCE7D227E67A2D00F531436136355F243D1FC0D712C5765754FA22FCFFAE97919161F46D6E61ACB37D83777B385889770B50765B127768443A5C4D3A4E35
310
A3151111F146B7CA116F918A049F1C272F2CD7976C69A0068773451659A97E0F4A08FE604C3FF6CE7385DB19F4D3ABC8A0D80DA8A42096AC377DB49382B36E270B6FA7570188B4B7D1DDDDA82ACA487CCA5D38BD3BD039ADBAFA4ACFF27809239B722081E2EB9F145320553D183F28471C388BC8814E5045676767AB58A8E7
310
2D1CED2CA731379515D2E533E4CF0B39DFC625F97AC4836831A4DE330E87A8126FA17EBE583D614E71E22A8DBF2825599743E0640037303E8E1B1E8EA4E1ABFA4F62907B5E4E0E5DCFDAB417C36C6848A2B8D15F1E505434C0707E16B1CFC2A1C36A42BBF55734F8F4301DDC2A5110CEE8C0747F69519265012A2174BF4E95
310
5ECD4FDE095A3ABC70536B7AD0B9D7892F81287D667C108703C9B66A221E9A0929D030008F77FF6F5D2108EF5706FC87A3069B976F7C9FC3239D13D283CDEA83597461079FEEE049B0F392889898B7D87D31F8D60ED7B56B91823A8E4EDDB36C6172ECEE42BD42B12CD67994FA0F0DFAE9389356F4CD4425A4B8AA55CBF7EC
310
D585C6A2C2316791E43D5C06841ADBB226A87FD61515FFBB0167B74E56BD7F3E90A57A97FEDCBDF483A0D6699A8C0849CAEB4947FAA90D8E332D9DEBD9F4738C37DA0CAF9CF3DAA68BCB67C420459C7A64498D6E848E5CADE92BB6901F607AA331104A67F7CD650EE169B1DAE94D2C31C2F993632259B6957E246EFE4C5481
310
107B07118607700040E5812A2A2A38DA0076875258C753F60E0F2662C748EDD5F3F3686B8FC3BD6FE631ECCAA1E8B1C1E565AD117E54893E79F4672E32F9E46B2A183DFDCF3EECB4D4D077DBEA0DA254D256045109670050129E9B9B1A9E4A11344D61497A992778095151510C4BB7EF2009B63AA4360635312E4CF668B7E0
310
D3D85A8688E2BD83B569439892ADB63461930D428E0DE42E4AC57CE48DA5CC1449530D8BD3D6A0F08DF20C8E8F570F2CFFFCEA286E30969B4654D498A58D9DA782E19FE3F002181838925592C4A1EF0B332D88B61A92C644547BED490D3A42CFFAB70E36D961F694F6307F72FF15A1C79D5B1B5CEFD353D9E2B52566DEC8F8
310
F09CB3E8359C0F68EBBB7898243E34E12A015B2685AB303C04D3A9E00671FF3DFF0A184E4A2ABEB2B666AF5B3A209C73D8EF29DCDB069C9F391EEE9DD0F74C7BCDE16F8F02E3B8816122BBEB50665775B600549D8BB33A54A6BF940C028118BC6878C79958D6784F9DEAA6E26748386FFAF8D0D0101E2847B6563F5D8DC1D7
310
8F787BE00E2C941AE12148D4A81599FE8F68D4DA5CDED75530ADE138240300EE13B0FC13A1687FED6774662C05A2B7DFB186732F0D7A93545D8B0A6390AE5054D9CB582DA846D7A061B3358B45E2B52DDE63E114397EDB7E09233A579155D795BE76102CF277F4DF8B188C4F2879BEAE3C08347124BF9ED23B128259FE107D
310
31E34A652F090B30B39E0D9AF917B76A2806135621A8A60681F16AF216514BBD02711585B5B1AE823F4B2D0369EA5B6BCB863072727FFC871CA6C9AB79A814D989057E9470A3D238BC87CBB4A0EA49AFE2B86F22E499793CAA9047080450166BDC357524561E258C77CB697F1ABB32562CF87C3B7AA12F911EF19FB3E5C022
310
22E887D08202A60A17151F5E053A86B437771088B4FEE14D652C43E8D939995D34545E12E2FF93D4E366EAD25F10CB7DED141563C3D0C447AF06078A91135FD4B9611583CB4BF3BD167F2399CEAB0E0100F8FFC305F00F1711717173138B4B48C83022295DE657EFEDD97F238ECA80F528AFB4F8D67AD4E2594B9A3AA86D74
310
87EFC313BA95745C186F0CDD84CC12DC9CB0424B42203D351FD9C0A3AF10CC7F388E0329279087386421F194F4A29464C1DEF7EF8BE515E4A199DCD5B909342598D8FE6A231F71336248D5CEC5454455C7BE383B3BC7B260FED27F703FDC39A170F3827239102F59D4DEE7FEF82EAA1A5E4BA94DCC4CC44E7E2EDE20F24244
310
E4454369D2E87C3F823F193FD4FD27E1C23984B01898D15ABC20711A8A558054951A6AE280096BA36CBA439603B7B0B4C45F248C14B2383B4B5CD8ECECE4FF859AD4A6CA2326D020EF090F4041D28DB66E5256B56232CC52829DE8060BAE6BBF37D4B7469B822454FE93210A3E8D15E69FFCF01123222611C51C4FD0A041A0
310
CFA2471CF6BE38D2B20FA4C3525B5B8B586759475CF80ADFE67A284AC24651E52B8E683D24C2622642F27E7C3C22783BCF63648BC398BD6CD0D9C97E7E7E3EACB6126DB7A6C1FD9F1031302EE67ED96F22B77C7CA0239BB324207559B105E4693EB26EC46182A92C9C0DBD24F29B31C5C5AC1F84300E0E17CEEAC15F5736FA
310
4A98971E2F1423BFCD68D4BBD5F86E74B40A369F39507C88FCDB35D2DD8DEBEA4AF999E23CF2816D204200DF6E611781B9884C1AC8888B4DE397320472959434323A5A36B22A8E1F721A270DF3BD65E4A31C11FF048AFB0D8B7B6881423793963A23CFCE935FC189ED36FAE35C46DA3574C979E4394BE52084F3081837BE03
310
3396D2EBD80F1F691B273F660D2B32FA27A33B1DE4ADA5F0FA4651511102DFA410DDA86E065272CA314D5249DF91B06BB92807B28EFD54F08F7B525252782CD276DD02E6B0319B13DF87B1F6361AD6B28FC0D711CF445429B9E5A433CD493051C49A9E03DDB1B147D880253514A5DED88009018620EE229101C041950E2D8A
310
A8E1F5F5438E0C0C0C60EEDEE9E3E0C051948C69F84BB7B2A48A1F3C8EB9E6864687F4F4F6F6E2FA87608ADAF9C5E117B7C1A737E710769DA1D15ECE6A84502AA855398712D5FB51BE92E4EF824969CE18278798AC303C2C7980DD2500ADF8FB1E6D6C2FAAFF9987178923334A244758BAA01A9A1B70FA5097D01E1CC2A58D
310
AD0EC94CE6430AA9B0C10D75E3C6BAC670EFBADEE1607739CE0FC18A2587E3EC3058562014C64219C69BC269082D5C2F4A659278D585755912176D78A1B641719C2A394CED495A1AC5D583FD2F5EDD93308EA7EAE8A6DD396598BDBD3D4CFED62D18A5BDFDE0DD5C80D1A89BA62697B131AE7CE9A6594138582F1B37D68F17
310
49AC7CB67A70695D48A4A056AC1FBD4E82358CEAE38F54B95A9016F9000F9879C0D9D131768635CA798895F27D6F1614F11F2838A83611AA51C9A3DDB539D42979C29F10465655C17BEC3E2760B80DCBF609198C7B171A531905F3EC218D696025975E986C6B4C666666787271F202805577DD5A3EF0CAFAF91B62DC4B2DB4
310
217A7606282F31D8DDBC290593BAA93EA6353AFA9939B877978481E15CFC9F2755CDC00C538F63A4BA3E80AE009B73CA0185687D339A507D165B74290D6EE46D5C58148F020C3668ABE9EF2F7549170DC80DB41FFC1D678FF19AEB10C7133832B104B80F691B3138F97A92D26E551F1F110400D45AC71A9B9AC41A1A1B1DAE
310
ED0B0810638EFFB511D46B121C6FEA0F38CD00E03CFFEB9713FE1F9C263E4DDEC160D0497FA9A132BA608584057FB15380825DE6C7FC3C667EE947D488A09898D8E939C4953BF4EC9836344D2CC6B2971B2A21A572B06096F4982D2CC7232D46E8EA69DC83722E267754D777F97F96D5DA74E1E75178084D0E70F12AD33E5F
310
71EF2AFA599B2BEBF60A5BE475F444F240CBFE8143C334E7ED9150FEEFEF7EB020C4DBED388DD1D6A167A76F3CBF119B578AE8CFA7736ACAFA4440A1C47185638A0D2F3EB5BDDEFDA958FB13CE4AA4923D5BF840392D45544329525749734866684BF7F8D9D54D892E19BCA9F829A0F8BFCBEEA6CFDFC61D74EA1A645ED7A1
310
FF241739F15694BD835B66FEC5677E40FE69BD3F91AE402F036537218A401CB0828604AD189E575015C6F3F6BBC8AC79CF6C70653847254B31551EFCBEB5978B9DB85D58D0FA41A9DFE9C624834AA04949D24B5AE6D299E072D152D12097920F14AA92C31C3B97E28B6C2E6E9C23D63043ECBBC0A60FDF5BD0C33C127EA8A3
310
308B8B6AFFEB28B4455BF6E7AF4FC6222728357EB8E46E85053E6A8843AB23295BF838ABDA94658FEF3F832F147046B4ACD6F7D48E8FCC9618582961C898D1C7A253C91BFECBDA6BA18A1FCF70755DCCEE2222F41B76D23CA98D0CB3D95F0CF66D57FFF65E2A90F5DF40FC3187621E981BD0BC1D992787212688976B94A8F0
310
C6EF646624B570B78E068826F87CE27041A95C9A4871FF65CC17FCB1639629AD6A9517000D63AC231F3D741CB8430777E7ECF80CE7A3F73C0F162F7E56AA71F4DA80A33CD6ACEE78E2C11FAC03DAFCE929B106F8F6B3ED2DC71FF994BD9CEF4E9A94896EF1B6E2B7B4978168BCF0847A3D2A4F1B0500B926E634B174548E9F
310
BAD27153FB5FC36799B1E6C7C38A94E1F9E996796D7B485E635D5287A2AE76FBD11A341DB3F8F810385BB7296391973DC6C37C452A9305AEBBE0CDB6C566DB59FE60C8E94B1FD090354BF51439FFD1B48D725228FFA88C84F686F547107A7A235665A4593B7C34D748C1AC8D56DD5DA861EEFBADDECBBD65117E65851F9035
310
1AEB65F0EFCFF4BCFEF24CB7A5879699FAC437A7AF9099186CF006BB923A59E37D7A36A29FD8D2CBB914A5E9D0A8FD212FBF796AE9A67958FF1D5D8B85F78F96219D4714EB919929241B6C018AAE0C02069F8D919961EC5DDFBFB7573E3AC8E08BFB7C8534BE6DE045B3CD63DBD71F7638BA2309CAE398EA3A7D8F98BBBC7A
310
EB367EFA5CFA27A9F8F2F52FE878058E6209C026453F8E7E8A237DFC389E9590F6059B397CFD65183BBF936E86896612A5B5FEE49DAC8455D026218AFEBEC12B3523A45B57B82C9C97E02ACFA1184DB18E48CF615DBF39C3CC6F0B4AE6BBEEA2E39D944E290302FA3DE33FA7E40296E2EF7BF1CD855BBECFAD0FD622BEE974
310
6FC4FDFDE545AE6E3BC234CADF83A0FB76DFB145BF3828AE3436368AC24989454F8FF70A177672C711CAA1A76107218CF948CA01F873520E7A2B118EBB161ABAD432932029628B6761590C98AB590C8C8C79798CE9F715BA696E839E9131A4BB68BE923F1747FBFF165331FFDD4D05997ACD168F12CA75348DAC04C7F509FE
310
83898A8B421181AF492861CE81E4A2DD0A30850CFA95E05F097FF70F9E777310D584A75BA7018922E271DAB1D785671157685B7D383D3E074DDB4F1E44EF04B07BAAC75A062077C54B9752C738C9D804D402E02851F3F89605AF189738C18C021D2139EAF72513824E10DDD3047BACC8521ED7E98B257D1166903B1B08FA6F
310
918FD7E162913FEC7D0EF4787E29C35FBA8C6E2C9C20E9AB30AE42CA2A01A090E7D010C1B5BF9CEE2A304BF3A987FB40D836979B79E18D70F257DA61E808472DD85B82761825779D6B90CAEB0F23360C6F80A7D7D77545E95B3DFF0CF96A827F9B5BCECD2C9698718417EF80FEEDEE938AFF55859D0D540B7FE09435583A6F
310
04874A0C7E8CF234DF4879722000167F5872CEC6BF3EF7E5A8CC8121E6A359227C8A29C95212F9F735BC72A887D56B8F309FC525BFB4FD767AAEC4AEFF249CFBBD2DE1AB9969A6155C7D8DABC307E47324C1F916C7BCFF40ABA5644E9FFB9238D19ADADA49D9610F01ABBA57E4DFCBDCCBB2B93C8953206C91DE01B0E2651A
310
6D6C31721915B31F7B7CBCE55466F6D70402788FA91D73BE4ADCBA99A35F17D6B83383704917D6833F0FA3CD45C926ADB8BC17999A4A0AFBCE2541F7B8CF4C2F5FBA611B3E626D64407CB32C122DFF4EF8674D6EDBB86C8F7C6A16D50FA685E2CCA34F8F7D1D8265BB0042E9D7F1F666F7BE5FAA5184DF58E12122A42EF02F
310
461B3F369AC746F96528AD208512AB56844CF75B97F352DF7995024FB02855385854F3798670D01CAC771AC3E1889EC25F61A20C1F8CAB46898817F9C47E2CDA1F286BF2F358298709FE567C91133E2638C8B53975E753EA8BFD3578B5F7186B7BF084EBA3F77BAC3132A5779902EC22AF2D2E79F42D324E083386DAEE9810
310
D1B44A5DAA54513C7A71E52A4AB9257D975B621308FE4D2141CC3DCFE946C154A3C1DFCCA7629EC69ACFA831634ADDA93C0388D2A9A2DDAFCF957C6995BCE7FBB6DC4EBAE79E63EB08E9A25F52F67076F7093CA545CA3053B5BF576DEAD4E0017143C5F759F32B2D6F145B52B67B48909B7C7FCA6586EE385A2189C16932CB
310
6DDFD9152AE317C430492A578ED27B72D85D40C7C93C097939E1B50F4D67F05334FE9DC362C30B7FF561B95259138ECFD9274C8D695C31B14D4EAA9F3D7FA8DDF652F8C5DEFA23284C799B7D94416DEE81E05A866302DC70192A5368EA65E1CED8BF107A1E2D3119A71E85DC1A7B0C1E93274CE04DD0F2ABC8AC7C987FDB00
310
2B6F81757B43502EF7A0D92E416494FAEEA4C9C090CD9557AA4D532F4996A272B94355C5A0E4974EEA9627476F30809B94D8D8D860062E02204643BEC7D0438AF800FC7E2B26955D595421E83C69E1A07E0E3122285835F014AD538188CF9737CE76D464A353FA55A001AB2526B84E985083693BC76FE211CA1D000679C889
310
E3C009832C87E1AC2EDD05C302557422DF0800E316FCAC86978A371F025A6C7DAA9F333E7BD160403A1A06EA75AA9888FF01504B0304140006080800F284EE5451464CB48900000043010000360000006662782F39374546384131362D433333302D344533312D383531322D3031363644444630303245422F646972656374
310
6F72792E786D6C9D8F310EC2300C45AF127987122606C71DD918B841D4B851A43646695A717C52A85029031293A5A76FBF6FACEF7DA7264E43906840EF0FA03836E242F406C6DCEE4EA06AC22492573150D1F66C60C640E8938CB705396EEDD86DE9B5042FE27813D640EA63BB001C722AF6E55CB61E4863F58284D5D3F53D
310
D715CE1C3985E63FD7F1B7EBDD617E9F1E504B0304140006080800F284EE54B68E917B48070000541C0000340000006662782F39374546384131362D433333302D344533312D383531322D3031363644444630303245422F6F626A656374732E786D6CDD595B6FE23814FE2B56F665F7213702144694510BED088D3A331A34
310
AB7D8B4C30D45BE7222769E9FEFA3D76EC10A7A1A47391564B25481DE7F89CEFDC4F66EF0F31438F84E7344D2E2DDFF12C449228DDD2647F6995C5CE9E58E8FD1CCD789A168D7D164A704C2E2DB16CCD677B9E96995ADA921D2E597BF5F6FA2F94472421168A18CEF34B2B8FEE498C1D5C16E996E40FCE1617D8D9EF0E8EEF
310
541B4DB27B8EB3FBD65119E624298055584F808AE2C037FF0591DCF9CC151B8C6D41BF6D8357B6B9527093519AE4054EA2175CB58E1B9CE0AA755CE00F973783D1D41E0D87813D1C0F7CFBFAF67A69FB1781B7182F16D3AB9BA985E6B34D9AB25A011949B6A0C5676BEECF5C71A7165FA1D0C57794260989149A5D1BB644D1
310
A5246F636200EB4BD11A0AA9646D2C043D853FB1AD1728064B06DA5A38FDDBB4DE74F3378090F7B1529E1361E579C141D70AFBCA1FBC995BAD1A7AA1398A714138C50C31BAE1988382606BA520838CF016410A09CCA41635BD26AF60D8E77DA98BCB5DC998F05F6B2E3D2D047F24452E39A3FF107EE4BE791AF004D2963429
310
264AD8E2390312D3992B17AB7BC140DDAC80443B86F7602D20A6D8140C5A782D442C582DADF9C7DBCD612DE243F7E1194F33C20B6179D29995DF690D364C0B8CAF072815AEA6EE8EA87C05E83F01F2352F68069AE3F4303C0CB5EC1C27F92EE531680779C8F6E0CB43E2F2C5D5CCAD1F9E2364C4CA539882DBFE244C0D318C
310
B31B90CE678F60F4290F9470EB0833B0E93B9A083F0743412C852588F7BBCDC19AAF2098C2223C8519480F7F33575C22F8A9E840BC6969A82BFCF650947698B69F1D75F5016C86D3A8569521E3297C473F05DFABE5FAE3BAE43B1C913BE5D84BB2A3092D2099763364806EB8FCB7D527E9911F58BAC1ECF8B4B1298263F6A9
310
881B1D6A592BB520A917E044A4E14A3372E58E82B73386139296B95AEF8A5351CA521E6E9EC3CA853BCFFA53DB4075983280CE5806C93DE23413985873A5AD3A103A0D41C1C2305716B8AFB41A6ECA380B719C968908B52F4DB1CD07C4196189405552D386ADBD5693DDD2DDAECC217875925C18402A7FD6842B0B1F421CEB
310
E297931DC79044D324A49083C1593A4F300EA8C17B9DE79CB05D48192BE3704719E49130C6D909FA3D256866AE07F2FC94F26D2741D3B2B44F6A1B12802B6035483A5B55315FE99493472ACA4C99CF74363076A83AD49A0F4FA40B91293A00D5C628CD7C38F6077E7031B447DEC8B7A16A0AECE9E2FADA5EC2F77034185FF9
310
234859CA4A2402C768D5CC77A04A51E618FE57DC97F126C194C10D41016FB377EF65F6BC742134BAD38B9BDBC9953FB61741E0D9C39BC0B727237F607BFE78BC5CDE7ADEE0E6DAE5244F4B1E91DC1DB85EA84D324BF6A7B8AA63A9C85A203F7C2B48A1AC399FECB4BEDAC2FC8F63683B27184AFCAF06D13A767514847D83A8
310
78B41D4271F42052541841D5D7E93EAD20DAE6A32BCEBD312E7B4EE0C98FEF4F07DE7430998E463DC39E3CE987235D970C11749E6511A6198E68D19D525BC8F464F94DD9C509FC51858DFE1E0C10E0D57BB566EAF5CCA4980A698CF724DC61D1577484D273127766BD3D4BF39C2624977DE18B7AB145D373A0FC32B37487D9
310
D23C8C4981BFC76265A3D1F20288E62C840EB6103384B37544ED02AA67394551F4CB90EAA5FCCF618EE38C55BDF1390CFC81864077455D162A9816473C827D86B808BD2D91A38E73D46BF67545D1A9B536F5E977933F018FAE847E213CFA88FEC59633F2A7E2338130341EF9C1F8A256C539B4F46185E8FD5809DD6AF41C3E
310
11BABFEF559CF6D34AA3CCAB0AF182C4D0FAE2A2E4BD3C760CD144DB9616484586964B344E7A6341297B3EDDF5C161B2E93B5512378E81DA9526301BEB25C80B293A8D58EA42CE01C5B8EB0D9EADB1394BF58723E62FAFB29BEE174371D80707A8B0AB10ACE28F51877756EA460D953FE1228250BA96BFF63578C4966C8FCD
310
9C41AEABACD735EDB98A7B25426A0C535E2C22ED9DB8605F31A81A3AEEDCFD50157A6EB5BE12A9CD8181F6910F836993D6E70FEB161558E9FDF4178111796A5150AB0BD141BF42EADBEA3827685150127D5BBDF2F87FA20BD10A6C74233041CE534661904FB6684F52C8DF30AAE8D1A1F098E4322F1F3B1BFD16A1C7D38FD5
310
1CB6C01BA6FBA2E81EC3309BA9FEAD8C60900A39F3D252EBE837189D8AE9A51C68390FD0BAA91866A192D34B0B2CB6A0D0A1391B1881C981A3A4DE1A718263E3642F327EF554FDFFF1B1171D5BBDA70F2E4A32C399A014CEE4BB05A8FBAA1BF3D9F78BAED941B880CB4D59D4C21C178ED22810F44B844A3898143E28780F50
310
52BC2E97EFC83D4613DB6B9AFFAA1D5454ED02F3BD1CC9376CF26AF9C515D3F4D56794B1722FD4F95AC76C50B245A7CECA6A723503C35062665854918B77EE179EC26BA918DD523002F4FB6132FEC35DA4719C26D5927BA55E6EA1F53DBCAADABA7A4C08ADBFE74F5C393950AF02C20DCE8983B7F9032C806A3915F3D40A62
310
C300EA68DA3000AD11A10B78CCD8BF5A22551D35A62ACDB02BE091EF0110389278FF23DCA6B9A131B4045F00AEE4CDE3855E98B91C06E7F37F01504B0304140006080800F284EE54C2CC8F3DE2000000550100003C0000006662782F39374546384131362D433333302D344533312D383531322D3031363644444630303245
310
422F7265736F75726365732F322F636E782E786D6C4D90CD4E042110845F6542E271809935AB6E18F6253C79D920F42259A027FC187D7B61C5C45377AABE74AA4B9CBF829F3E21658771230BE56482A8D1B8683752CB757E26D3598A8458FE61648A2AC046BA4CA4B009EB3E240357557D57BD8BB721F28B8508C9E9CB1E2D
310
99B457396F24EB0F088AAA5AD040BE51A38AA20B4D90B1260DED447101C6099D40153044AE7C5D67FE342F8FAFCBF17478391D8E6F8275528A77443F78170B24DC1F56AEB1ADB125E28275408A9ADCA0FA1BCDF88B475B3CC19A2D452EA97530B0F2BD37CC056581DD915F570AD69F6CE3DE409BBD10F903504B0304140006
310
080800F284EE54FF15A4A45D000000800000003A0000006662782F39374546384131362D433333302D344533312D383531322D3031363644444630303245422F7265736F75726365732F636E782E786D6C4D8B3B0E80201005AF42B6F75B59F0390B113044D83508C6E30BC6C26AF226F3B8BA6360974DA7271430F523308B
310
2B198F9B80925DB700539227A2FCCB80A18E5640D320F996A81C9F32D6E9129A0D1EF74FCE750E6D57BC7165FBCA07504B0304140006080800F284EE5476E8B18A4401000056050000300000006662782F39374546384131362D433333302D344533312D383531322D3031363644444630303245422F636E782E786D6CCD94
310
414EC3301045AF1259629938495181CA7125169C800562E738D3D4D4B1237B8CE8EDB14BDA8250058B4AEDCE1A3F4BFFCF7C0F5B7E0C3A7B07E795350DA98A926460A4ED94E91B127095DF936CC999B316BF612433628086A432E1AC77368C53A98395083A55B5329BA928109D6A03822799D4C2FB8678B986411422A0EDC0
310
6F8A4EA028AAC281B7C14988EF510D30BD970E044247785DD6755EDEE5D5ED73355FCC1E16B3F92BA389E4ACB5564FBC3208CE8E3775296D3C9A28A76434019C05A7262A7920FCA8AD68956134DE73E6A35ED34F1C6EC7C48DA35652606C14B51201F308811818FD8239A3C9F10FDF4F8F2F470DF1D4290712ADDB5EAC0DD5
310
A9361CA4153111FFEBC20EFCCBBC6DDFA2E5CBCDFDA4E149D8D9ECEE93EB63747F2721E649985E5FE30738483B7FFEE3624125AFD1F45ED9993CD3DD0A8C834F1B917F02504B0304140006080800F284EE548ECC29197E000000A30000000B0000006662782F636E782E786D6C4D8CD10AC22018465F45FE7B4B6799813AAA
310
B9F718CD0DC969D88C1E3F8D5D74F5C1E13B47B69FC5A3B74D2F178302BA23806CB8C7D18559415E272C00B55AA618D7BF1BA0302C5641C5A0E59C627E6E68B4D3907DA5DE85C706CF27D38B0BE5F8C618C107C3281647DA604239EFBA9E90C65C8BB1AF4A995FAF6CCDEB2F504B0304140006080800F284EE54A6D797065F
310
0000008200000007000000636E782E786D6C4DCB3B0E80201045D1AD90E9FD7516806B51190811670C8A61F982B1B0BAC9C97B72CA7B1037C6D3332918DA1E04D2CAC69353902EDB8C20262D23F3F59B81A079470595414B17391D1F19B4730A5583A7ED43BBE4025D9592775E5ADFFA01504B0304140006080800F284EE54
310
ECFD112DA800000026010000130000005B436F6E74656E745F54797065735D2E786D6C7D4F4B0EC22010BD0A61DF525D18634ABB506FE00510A79458060253536F2FD89D5197F3FED3F68B9BD80362B21E25DFD40D6780DADF2C1AC9671AAA3D677DD75E9E0112CB5A4C928F44E12044D22338956A1F003333F8E814E5331A
310
1194BE2B0362DB343BA13D122055543278D79E6050F344ECBC6478EDCD76CE8EABAE5449AE4298AC56946789C28AAFBEABC53F3EAF09A84A1441B91F0101CD4780756578C173A578FFDDBD00504B0304140006080800F284EE543DEE336E64000000790000001B0000006175746F6465736B2D64657369676E2D7061636B61
310
67652E786D6C35CBC10E83200C00D05F21DCA56CA76D41FC96062B120735B69A7DBE268BB7777961F8D5AF396893C2ADB70FE7ADA196782C2DF776D7A97B5933C430F15651E5469C55D70F80A4992A3ADC954792C525AE70A1E4D6AD9816CC044FEFDF01FE3FDE907802504B0304140006080800F284EE546FA2D57DF30000
310
008E0100003D0000006662782F39374546384131362D433333302D344533312D383531322D3031363644444630303245422F7265736F75726365732F322F636F72652E786D6C8550CB6EC32010FC158B3B36600BD71126B2ABF40B7AEA0D01715062B07854FDFC42EC4AEDA9A75DCDCECCEE0E3B7FAD8FEA53FB609C1D01AE
310
11A8B4954E19BB8C20C52B7C01D59933EF5CFC45039515AB1E418101678B77693B20E96CD4B6A0D6297D8022041D41251FB919419037BD8A5AA49819E15E6F42DEC5A26B5CEF3CCE5232EA901A95DDCCD5680FF82BBA0C134518763D22B023D30CE799CE70A23D9E867E7AC317CA9A22E62C9AF567BBF45A44AD0027881088
310
7A88BB774C4FED706AE9076B0A93B3107DFEF9585ABECB74D6ECE81FB7B4A9FFDD92B1B12587DBAE0880E37CDC73C05953D2C9E5195DAE2549FE0D504B0304140006080800F284EE54993417F5F8000000960100003B0000006662782F39374546384131362D433333302D344533312D383531322D30313636444446303032
310
45422F7265736F75726365732F636F72652E786D6C8550CB6E833010FC15B47703060425328EA04ABFA0A7DE2CB32156828DFCA8FAF9B50395DA534FBB9A9D99DD1D76FE5A1FD9275AA78C1E80E62564A8A599955E0608FE4A5E203B73668DF1BF689069B1E2000906CE166BC27640D2688F3AA1DACC7880C239F490C9476C
310
0670F286ABC845F091E1EEF926E45D2C98D37CE77116829A0FA99AA39BBA2AB4C05FCB4B3FB625254D5756A4A9C6894C533B91B1EDE8D877E31BBDB4AC4862CEBC5A7FB64B8BC2E30CBC2AAB8A941DA1CD3B6D4F757FAADB0F56242667CEDBF8F3B1347D07DCA233C14A74ACD8A77F5CC336FFEF1A94F67575B8EE0A079CC6
310
239F03CE8A94522CCF08634D89F26F504B0304140006080800F284EE54037D3FCCF2000000B1010000310000006662782F39374546384131362D433333302D344533312D383531322D3031363644444630303245422F636F72652E786D6C8D50CB6EC32010FC156BEFD86052E7214CD436CE17F4D41B02E2A0C460F1A8FAF9
310
85D895DA5B4E8B86999DD961C7EFE95E7D691F8CB33D901A43A5AD74CAD8B187142F6807D59133EF5CFC4383CA8A49F75060E06CF42ECD2B249D8DDA16D43AA5575084A02354F29E1F3D0479D593A8458A99116EF52CE44D8CBA26F5C2E32C9AE9572ABD16512BE02D6E5B84B7886C3E4877A0FB03ED3E5953989CA564D46A
310
6554763717A33DF0FD7638EF5E4987DE29C568335082762F246F215D773A9D316E8737D614316721FA7CF3BAA45CF7AC7C11FECB9C66F5446663236D57C3451180939CE7F1C159530ACCE3D16E9EA56CFE03504B0304140006080800F284EE54C31BDED853010000DD0200000C0000006662782F636F72652E786D6C8D525D
310
6F832014FD2B867754ACD1B5411A5DBA5FB0A7BD51A49654C12098FEFC811F713EAC5B4C909C7BEF39F79C80CFCFAE0D46AE07A16401501883804BA66A219B025873836F203813AC95323FDA402069C70BE0614070A395ED17882969B8F4A854355F403A0CDC8080B5EE528081DD7947436A8DEB181E614FD983363C44E1DC
310
47B0B5A25E4645EDD8C44D700DC87B7C3996598C609AC7094C93B282559555B0CC72541EF3F2035D321CF961828DE85675A63935BC0624899304C63944E927CA4E87E3E9907DE1C877123C18ED3C2FA2DE1D20B7EB134733BEE3B37DFD379F15D21C92856F9E1800416EBDA94070E4F371BF29BC7D864ED8E567E8B55D2D3C
310
1C347266944E5DA556762B8DB4B5DC51C7C1F4E168AE3AE689E0379EE405CF6B0E1714958D5B8D1A77BD5AE3D5F73BF55CC3D13C03A97447DB6DB979C5EDDC847696D671A65AA5FF33BD5A5DC38CFCC324DF504B0304140006080800F284EE54191B957006010000B201000008000000636F72652E786D6C8D50C16E842014
310
FC15F2EE28A0D1BA4136DA6CBFA0A7DEA8B096AC8211DCB47F5F586DD2DE7A7A6466DE9B61F8F9739ED05DAFDE38DB02CD08206D07A78C1D5BD8C2153F013A0BBE3A177EC9005939EB16120C828FABDB96031A9C0DDA26D43AA50F507AAF03A0618A8F16FCF0A16799C92D4485BF658B1C6E72D419CD769DE0C1CC3FABC3AA
310
65D00A04238C6152635ABED2EA5434A7A27AE379520ABE6D461D5646457773357A05F14C2E4D57118ACB9A305CB2AEC77D5FF5B8AB6ADA3575F7422F15CFD3B2E03EACF1CFC7919833202FEFC997E73B25F8BB73D32188A1147276FA0241789E883FA1B745FD23B4B1A160C7C17DC383A031D08388C6A9C1381EF5C699DA16
310
DF504B01021400140006080800F284EE540000000000000000000000003700000000000000000000000000000000006662782F39374546384131362D433333302D344533312D383531322D3031363644444630303245422F617474726962757465732E62696E504B01021400140006080800F284EE54000000000000000000
310
0000003500000000000000000000000000550000006662782F39374546384131362D433333302D344533312D383531322D3031363644444630303245422F76657274696365732E62696E504B01021400140006080800F284EE54F270F13306000000040000003600000000000000000000000000A80000006662782F393745
310
46384131362D433333302D344533312D383531322D3031363644444630303245422F747269616E676C65732E62696E504B01021400140006080800F284EE5488E57597CD3F0000904100004200000000000000000000000000020100006662782F39374546384131362D433333302D344533312D383531322D303136364444
310
4630303245422F7265736F75726365732F322F305F67656E657269632E706E67504B01021400140006080800F284EE5451464CB4890000004301000036000000000000000000000000002F4100006662782F39374546384131362D433333302D344533312D383531322D3031363644444630303245422F6469726563746F72
310
792E786D6C504B01021400140006080800F284EE54B68E917B48070000541C000034000000000000000000000000000C4200006662782F39374546384131362D433333302D344533312D383531322D3031363644444630303245422F6F626A656374732E786D6C504B01021400140006080800F284EE54C2CC8F3DE2000000
310
550100003C00000000000000000000000000A64900006662782F39374546384131362D433333302D344533312D383531322D3031363644444630303245422F7265736F75726365732F322F636E782E786D6C504B01021400140006080800F284EE54FF15A4A45D000000800000003A00000000000000000000000000E24A00
310
006662782F39374546384131362D433333302D344533312D383531322D3031363644444630303245422F7265736F75726365732F636E782E786D6C504B01021400140006080800F284EE5476E8B18A44010000560500003000000000000000000000000000974B00006662782F39374546384131362D433333302D34453331
310
2D383531322D3031363644444630303245422F636E782E786D6C504B01021400140006080800F284EE548ECC29197E000000A30000000B00000000000000000000000000294D00006662782F636E782E786D6C504B01021400140006080800F284EE54A6D797065F000000820000000700000000000000000000000000D04D
310
0000636E782E786D6C504B01021400140006080800F284EE54ECFD112DA8000000260100001300000000000000000000000000544E00005B436F6E74656E745F54797065735D2E786D6C504B01021400140006080800F284EE543DEE336E64000000790000001B000000000000000000000000002D4F00006175746F646573
310
6B2D64657369676E2D7061636B6167652E786D6C504B01021400140006080800F284EE546FA2D57DF30000008E0100003D00000000000000000000000000CA4F00006662782F39374546384131362D433333302D344533312D383531322D3031363644444630303245422F7265736F75726365732F322F636F72652E786D6C
310
504B01021400140006080800F284EE54993417F5F8000000960100003B00000000000000000000000000185100006662782F39374546384131362D433333302D344533312D383531322D3031363644444630303245422F7265736F75726365732F636F72652E786D6C504B01021400140006080800F284EE54037D3FCCF200
310
0000B10100003100000000000000000000000000695200006662782F39374546384131362D433333302D344533312D383531322D3031363644444630303245422F636F72652E786D6C504B01021400140006080800F284EE54C31BDED853010000DD0200000C00000000000000000000000000AA5300006662782F636F7265
310
2E786D6C504B01021400140006080800F284EE54191B957006010000B2010000080000000000000000000000000027550000636F72652E786D6C504B050600000000120012002D060000535600000000
  0
XRECORD
  5
179A9
102
{ACAD_REACTORS
330
179A4
102
}
330
179A4
100
AcDbXrecord
280
     1
270
     1
271
     1
  0
XRECORD
  5
179A8
102
{ACAD_REACTORS
330
179A4
102
}
330
179A4
100
AcDbXrecord
280
     1
270
     1
271
     1
  0
XRECORD
  5
179AA
102
{ACAD_REACTORS
330
179A4
102
}
330
179A4
100
AcDbXrecord
280
     1
270
     1
271
     1
  0
XRECORD
  5
179A7
102
{ACAD_REACTORS
330
179A4
102
}
330
179A4
100
AcDbXrecord
280
     1
270
     1
271
     1
  0
XRECORD
  5
17A2B
102
{ACAD_REACTORS
330
17A2A
102
}
330
17A2A
100
AcDbXrecord
280
     1
102
ACAD_ROUNDTRIP_2012_MLEADER_STYLE
298
     1
  0
XRECORD
  5
17A2D
102
{ACAD_REACTORS
330
17A2C
102
}
330
17A2C
100
AcDbXrecord
280
     1
102
DISPLAYNAME
  1
Imperial24
102
FLAGS
 90
        0
  0
CELLSTYLEMAP
  5
179F8
102
{ACAD_REACTORS
330
179F7
102
}
330
179F7
100
AcDbCellStyleMap
 90
        3
300
CELLSTYLE
  1
TABLEFORMAT_BEGIN
 90
        5
170
     1
 91
        0
 92
    32768
 62
   257
 93
        1
300
CONTENTFORMAT
  1
CONTENTFORMAT_BEGIN
 90
        0
 91
        0
 92
      512
 93
        0
300

 40
0.0
140
1.0
 94
        5
 62
     0
340
DE77
144
0.25
309
CONTENTFORMAT_END
171
     0
 94
        0
309
TABLEFORMAT_END
  1
CELLSTYLE_BEGIN
 90
        1
 91
        1
300
_TITLE
309
CELLSTYLE_END
300
CELLSTYLE
  1
TABLEFORMAT_BEGIN
 90
        5
170
     1
 91
        0
 92
        0
 62
   257
 93
        1
300
CONTENTFORMAT
  1
CONTENTFORMAT_BEGIN
 90
        0
 91
        0
 92
      512
 93
        0
300

 40
0.0
140
1.0
 94
        5
 62
     0
340
DE77
144
0.18
309
CONTENTFORMAT_END
171
     0
 94
        0
309
TABLEFORMAT_END
  1
CELLSTYLE_BEGIN
 90
        2
 91
        1
300
_HEADER
309
CELLSTYLE_END
300
CELLSTYLE
  1
TABLEFORMAT_BEGIN
 90
        5
170
     1
 91
        0
 92
        0
 62
   257
 93
        1
300
CONTENTFORMAT
  1
CONTENTFORMAT_BEGIN
 90
        0
 91
        0
 92
      512
 93
        0
300

 40
0.0
140
1.0
 94
        2
 62
     0
340
DE77
144
0.18
309
CONTENTFORMAT_END
171
     0
 94
        0
309
TABLEFORMAT_END
  1
CELLSTYLE_BEGIN
 90
        3
 91
        2
300
_DATA
309
CELLSTYLE_END
  0
XRECORD
  5
17A05
102
{ACAD_REACTORS
330
17A04
102
}
330
17A04
100
AcDbXrecord
280
     1
102
RTVSPost2010Prop28
280
     1
102
RTVSPost2010PropOp28
 70
     1
102
RTVSPost2010Prop29
280
     1
102
RTVSPost2010PropOp29
 70
     1
102
RTVSPost2010Prop30
280
     0
102
RTVSPost2010PropOp30
 70
     1
102
RTVSPost2010Prop31
280
     0
102
RTVSPost2010PropOp31
 70
     1
102
RTVSPost2010Prop32
280
     0
102
RTVSPost2010PropOp32
 70
     1
102
RTVSPost2010Prop33
280
     0
102
RTVSPost2010PropOp33
 70
     1
102
RTVSPost2010Prop34
280
     0
102
RTVSPost2010PropOp34
 70
     1
102
RTVSPost2010Prop35
280
     0
102
RTVSPost2010PropOp35
 70
     1
102
RTVSPost2010Prop36
280
     0
102
RTVSPost2010PropOp36
 70
     1
102
RTVSPost2010Prop37
 90
       50
102
RTVSPost2010PropOp37
 70
     1
102
RTVSPost2010Prop38
140
0.0
102
RTVSPost2010PropOp38
 70
     1
102
RTVSPost2010Prop39
140
1.0
102
RTVSPost2010PropOp39
 70
     1
102
RTVSPost2010Prop40
 90
        0
102
RTVSPost2010PropOp40
 70
     1
102
RTVSPost2010Prop41ColorIndex
 90
       18
102
RTVSPost2010Prop41ColorRGB
 90
        0
102
RTVSPost2010PropOp41
 70
     1
102
RTVSPost2010Prop42
 90
       50
102
RTVSPost2010PropOp42
 70
     1
102
RTVSPost2010Prop43
 90
        3
102
RTVSPost2010PropOp43
 70
     1
102
RTVSPost2010Prop44ColorIndex
 90
        5
102
RTVSPost2010Prop44ColorRGB
 90
      255
102
RTVSPost2010PropOp44
 70
     1
102
RTVSPost2010Prop45
280
     0
102
RTVSPost2010PropOp45
 70
     1
102
RTVSPost2010Prop46
 90
       50
102
RTVSPost2010PropOp46
 70
     1
102
RTVSPost2010Prop47
 90
       50
102
RTVSPost2010PropOp47
 70
     1
102
RTVSPost2010Prop48
 90
       50
102
RTVSPost2010PropOp48
 70
     1
102
RTVSPost2010Prop49
280
     0
102
RTVSPost2010PropOp49
 70
     1
102
RTVSPost2010Prop50
 90
       50
102
RTVSPost2010PropOp50
 70
     1
102
RTVSPost2010Prop51ColorIndex
 90
      256
102
RTVSPost2010Prop51ColorRGB
 90
-16777216
102
RTVSPost2010PropOp51
 70
     0
102
RTVSPost2010Prop52
140
1.0
102
RTVSPost2010PropOp52
 70
     0
102
RTVSPost2010Prop53
 90
        2
102
RTVSPost2010PropOp53
 70
     1
102
RTVSPost2010Prop54
  1
strokes_ogs.tif
102
RTVSPost2010PropOp54
 70
     1
102
RTVSPost2010Prop55
280
     0
102
RTVSPost2010PropOp55
 70
     1
102
RTVSPost2010Prop56
140
1.0
102
RTVSPost2010PropOp56
 70
     1
102
RTVSPost2010Prop57
140
1.0
102
RTVSPost2010PropOp57
 70
     1
  0
XRECORD
  5
17A03
102
{ACAD_REACTORS
330
17A02
102
}
330
17A02
100
AcDbXrecord
280
     1
102
RTVSPost2010Prop28
280
     0
102
RTVSPost2010PropOp28
 70
     1
102
RTVSPost2010Prop29
280
     1
102
RTVSPost2010PropOp29
 70
     1
102
RTVSPost2010Prop30
280
     1
102
RTVSPost2010PropOp30
 70
     1
102
RTVSPost2010Prop31
280
     0
102
RTVSPost2010PropOp31
 70
     1
102
RTVSPost2010Prop32
280
     0
102
RTVSPost2010PropOp32
 70
     1
102
RTVSPost2010Prop33
280
     0
102
RTVSPost2010PropOp33
 70
     1
102
RTVSPost2010Prop34
280
     0
102
RTVSPost2010PropOp34
 70
     1
102
RTVSPost2010Prop35
280
     0
102
RTVSPost2010PropOp35
 70
     1
102
RTVSPost2010Prop36
280
     0
102
RTVSPost2010PropOp36
 70
     1
102
RTVSPost2010Prop37
 90
       50
102
RTVSPost2010PropOp37
 70
     1
102
RTVSPost2010Prop38
140
0.0
102
RTVSPost2010PropOp38
 70
     1
102
RTVSPost2010Prop39
140
1.0
102
RTVSPost2010PropOp39
 70
     1
102
RTVSPost2010Prop40
 90
        0
102
RTVSPost2010PropOp40
 70
     1
102
RTVSPost2010Prop41ColorIndex
 90
       18
102
RTVSPost2010Prop41ColorRGB
 90
        0
102
RTVSPost2010PropOp41
 70
     1
102
RTVSPost2010Prop42
 90
       50
102
RTVSPost2010PropOp42
 70
     1
102
RTVSPost2010Prop43
 90
        3
102
RTVSPost2010PropOp43
 70
     1
102
RTVSPost2010Prop44ColorIndex
 90
        5
102
RTVSPost2010Prop44ColorRGB
 90
      255
102
RTVSPost2010PropOp44
 70
     1
102
RTVSPost2010Prop45
280
     0
102
RTVSPost2010PropOp45
 70
     1
102
RTVSPost2010Prop46
 90
       50
102
RTVSPost2010PropOp46
 70
     1
102
RTVSPost2010Prop47
 90
       50
102
RTVSPost2010PropOp47
 70
     1
102
RTVSPost2010Prop48
 90
       50
102
RTVSPost2010PropOp48
 70
     1
102
RTVSPost2010Prop49
280
     0
102
RTVSPost2010PropOp49
 70
     1
102
RTVSPost2010Prop50
 90
       50
102
RTVSPost2010PropOp50
 70
     1
102
RTVSPost2010Prop51ColorIndex
 90
      256
102
RTVSPost2010Prop51ColorRGB
 90
-16777216
102
RTVSPost2010PropOp51
 70
     0
102
RTVSPost2010Prop52
140
1.0
102
RTVSPost2010PropOp52
 70
     0
102
RTVSPost2010Prop53
 90
        2
102
RTVSPost2010PropOp53
 70
     1
102
RTVSPost2010Prop54
  1
strokes_ogs.tif
102
RTVSPost2010PropOp54
 70
     1
102
RTVSPost2010Prop55
280
     0
102
RTVSPost2010PropOp55
 70
     1
102
RTVSPost2010Prop56
140
1.0
102
RTVSPost2010PropOp56
 70
     1
102
RTVSPost2010Prop57
140
1.0
102
RTVSPost2010PropOp57
 70
     1
  0
XRECORD
  5
17A11
102
{ACAD_REACTORS
330
17A10
102
}
330
17A10
100
AcDbXrecord
280
     1
102
RTVSPost2010Prop28
280
     0
102
RTVSPost2010PropOp28
 70
     1
102
RTVSPost2010Prop29
280
     1
102
RTVSPost2010PropOp29
 70
     1
102
RTVSPost2010Prop30
280
     1
102
RTVSPost2010PropOp30
 70
     1
102
RTVSPost2010Prop31
280
     0
102
RTVSPost2010PropOp31
 70
     1
102
RTVSPost2010Prop32
280
     0
102
RTVSPost2010PropOp32
 70
     1
102
RTVSPost2010Prop33
280
     0
102
RTVSPost2010PropOp33
 70
     1
102
RTVSPost2010Prop34
280
     0
102
RTVSPost2010PropOp34
 70
     1
102
RTVSPost2010Prop35
280
     0
102
RTVSPost2010PropOp35
 70
     1
102
RTVSPost2010Prop36
280
     0
102
RTVSPost2010PropOp36
 70
     1
102
RTVSPost2010Prop37
 90
       50
102
RTVSPost2010PropOp37
 70
     1
102
RTVSPost2010Prop38
140
0.0
102
RTVSPost2010PropOp38
 70
     1
102
RTVSPost2010Prop39
140
1.0
102
RTVSPost2010PropOp39
 70
     1
102
RTVSPost2010Prop40
 90
        0
102
RTVSPost2010PropOp40
 70
     1
102
RTVSPost2010Prop41ColorIndex
 90
       18
102
RTVSPost2010Prop41ColorRGB
 90
        0
102
RTVSPost2010PropOp41
 70
     1
102
RTVSPost2010Prop42
 90
       50
102
RTVSPost2010PropOp42
 70
     1
102
RTVSPost2010Prop43
 90
        3
102
RTVSPost2010PropOp43
 70
     1
102
RTVSPost2010Prop44ColorIndex
 90
        5
102
RTVSPost2010Prop44ColorRGB
 90
      255
102
RTVSPost2010PropOp44
 70
     1
102
RTVSPost2010Prop45
280
     0
102
RTVSPost2010PropOp45
 70
     1
102
RTVSPost2010Prop46
 90
       50
102
RTVSPost2010PropOp46
 70
     1
102
RTVSPost2010Prop47
 90
       50
102
RTVSPost2010PropOp47
 70
     1
102
RTVSPost2010Prop48
 90
       50
102
RTVSPost2010PropOp48
 70
     1
102
RTVSPost2010Prop49
280
     0
102
RTVSPost2010PropOp49
 70
     1
102
RTVSPost2010Prop50
 90
       50
102
RTVSPost2010PropOp50
 70
     1
102
RTVSPost2010Prop51ColorIndex
 90
      256
102
RTVSPost2010Prop51ColorRGB
 90
-16777216
102
RTVSPost2010PropOp51
 70
     0
102
RTVSPost2010Prop52
140
1.0
102
RTVSPost2010PropOp52
 70
     0
102
RTVSPost2010Prop53
 90
        2
102
RTVSPost2010PropOp53
 70
     1
102
RTVSPost2010Prop54
  1
strokes_ogs.tif
102
RTVSPost2010PropOp54
 70
     1
102
RTVSPost2010Prop55
280
     0
102
RTVSPost2010PropOp55
 70
     1
102
RTVSPost2010Prop56
140
1.0
102
RTVSPost2010PropOp56
 70
     1
102
RTVSPost2010Prop57
140
1.0
102
RTVSPost2010PropOp57
 70
     1
  0
XRECORD
  5
17A19
102
{ACAD_REACTORS
330
17A18
102
}
330
17A18
100
AcDbXrecord
280
     1
102
RTVSPost2010Prop28
280
     0
102
RTVSPost2010PropOp28
 70
     1
102
RTVSPost2010Prop29
280
     1
102
RTVSPost2010PropOp29
 70
     1
102
RTVSPost2010Prop30
280
     1
102
RTVSPost2010PropOp30
 70
     1
102
RTVSPost2010Prop31
280
     0
102
RTVSPost2010PropOp31
 70
     1
102
RTVSPost2010Prop32
280
     0
102
RTVSPost2010PropOp32
 70
     1
102
RTVSPost2010Prop33
280
     0
102
RTVSPost2010PropOp33
 70
     1
102
RTVSPost2010Prop34
280
     0
102
RTVSPost2010PropOp34
 70
     1
102
RTVSPost2010Prop35
280
     0
102
RTVSPost2010PropOp35
 70
     1
102
RTVSPost2010Prop36
280
     0
102
RTVSPost2010PropOp36
 70
     1
102
RTVSPost2010Prop37
 90
       50
102
RTVSPost2010PropOp37
 70
     1
102
RTVSPost2010Prop38
140
0.0
102
RTVSPost2010PropOp38
 70
     1
102
RTVSPost2010Prop39
140
1.0
102
RTVSPost2010PropOp39
 70
     1
102
RTVSPost2010Prop40
 90
        0
102
RTVSPost2010PropOp40
 70
     1
102
RTVSPost2010Prop41ColorIndex
 90
       18
102
RTVSPost2010Prop41ColorRGB
 90
        0
102
RTVSPost2010PropOp41
 70
     1
102
RTVSPost2010Prop42
 90
       50
102
RTVSPost2010PropOp42
 70
     1
102
RTVSPost2010Prop43
 90
        3
102
RTVSPost2010PropOp43
 70
     1
102
RTVSPost2010Prop44ColorIndex
 90
        5
102
RTVSPost2010Prop44ColorRGB
 90
      255
102
RTVSPost2010PropOp44
 70
     1
102
RTVSPost2010Prop45
280
     0
102
RTVSPost2010PropOp45
 70
     1
102
RTVSPost2010Prop46
 90
       50
102
RTVSPost2010PropOp46
 70
     1
102
RTVSPost2010Prop47
 90
       50
102
RTVSPost2010PropOp47
 70
     1
102
RTVSPost2010Prop48
 90
       50
102
RTVSPost2010PropOp48
 70
     1
102
RTVSPost2010Prop49
280
     0
102
RTVSPost2010PropOp49
 70
     1
102
RTVSPost2010Prop50
 90
       50
102
RTVSPost2010PropOp50
 70
     1
102
RTVSPost2010Prop51ColorIndex
 90
      256
102
RTVSPost2010Prop51ColorRGB
 90
-16777216
102
RTVSPost2010PropOp51
 70
     0
102
RTVSPost2010Prop52
140
1.0
102
RTVSPost2010PropOp52
 70
     0
102
RTVSPost2010Prop53
 90
        2
102
RTVSPost2010PropOp53
 70
     1
102
RTVSPost2010Prop54
  1
strokes_ogs.tif
102
RTVSPost2010PropOp54
 70
     1
102
RTVSPost2010Prop55
280
     0
102
RTVSPost2010PropOp55
 70
     1
102
RTVSPost2010Prop56
140
1.0
102
RTVSPost2010PropOp56
 70
     1
102
RTVSPost2010Prop57
140
1.0
102
RTVSPost2010PropOp57
 70
     1
  0
XRECORD
  5
17A0B
102
{ACAD_REACTORS
330
17A0A
102
}
330
17A0A
100
AcDbXrecord
280
     1
102
RTVSPost2010Prop28
280
     0
102
RTVSPost2010PropOp28
 70
     1
102
RTVSPost2010Prop29
280
     1
102
RTVSPost2010PropOp29
 70
     1
102
RTVSPost2010Prop30
280
     1
102
RTVSPost2010PropOp30
 70
     1
102
RTVSPost2010Prop31
280
     0
102
RTVSPost2010PropOp31
 70
     1
102
RTVSPost2010Prop32
280
     0
102
RTVSPost2010PropOp32
 70
     1
102
RTVSPost2010Prop33
280
     0
102
RTVSPost2010PropOp33
 70
     1
102
RTVSPost2010Prop34
280
     0
102
RTVSPost2010PropOp34
 70
     1
102
RTVSPost2010Prop35
280
     0
102
RTVSPost2010PropOp35
 70
     1
102
RTVSPost2010Prop36
280
     0
102
RTVSPost2010PropOp36
 70
     1
102
RTVSPost2010Prop37
 90
       50
102
RTVSPost2010PropOp37
 70
     1
102
RTVSPost2010Prop38
140
0.0
102
RTVSPost2010PropOp38
 70
     1
102
RTVSPost2010Prop39
140
1.0
102
RTVSPost2010PropOp39
 70
     1
102
RTVSPost2010Prop40
 90
        0
102
RTVSPost2010PropOp40
 70
     1
102
RTVSPost2010Prop41ColorIndex
 90
       18
102
RTVSPost2010Prop41ColorRGB
 90
        0
102
RTVSPost2010PropOp41
 70
     1
102
RTVSPost2010Prop42
 90
       50
102
RTVSPost2010PropOp42
 70
     1
102
RTVSPost2010Prop43
 90
        3
102
RTVSPost2010PropOp43
 70
     1
102
RTVSPost2010Prop44ColorIndex
 90
        5
102
RTVSPost2010Prop44ColorRGB
 90
      255
102
RTVSPost2010PropOp44
 70
     1
102
RTVSPost2010Prop45
280
     0
102
RTVSPost2010PropOp45
 70
     1
102
RTVSPost2010Prop46
 90
       50
102
RTVSPost2010PropOp46
 70
     1
102
RTVSPost2010Prop47
 90
       50
102
RTVSPost2010PropOp47
 70
     1
102
RTVSPost2010Prop48
 90
       50
102
RTVSPost2010PropOp48
 70
     1
102
RTVSPost2010Prop49
280
     0
102
RTVSPost2010PropOp49
 70
     1
102
RTVSPost2010Prop50
 90
       50
102
RTVSPost2010PropOp50
 70
     1
102
RTVSPost2010Prop51ColorIndex
 90
      256
102
RTVSPost2010Prop51ColorRGB
 90
-16777216
102
RTVSPost2010PropOp51
 70
     0
102
RTVSPost2010Prop52
140
1.0
102
RTVSPost2010PropOp52
 70
     0
102
RTVSPost2010Prop53
 90
        2
102
RTVSPost2010PropOp53
 70
     1
102
RTVSPost2010Prop54
  1
strokes_ogs.tif
102
RTVSPost2010PropOp54
 70
     1
102
RTVSPost2010Prop55
280
     0
102
RTVSPost2010PropOp55
 70
     1
102
RTVSPost2010Prop56
140
1.0
102
RTVSPost2010PropOp56
 70
     1
102
RTVSPost2010Prop57
140
1.0
102
RTVSPost2010PropOp57
 70
     1
  0
XRECORD
  5
17A0F
102
{ACAD_REACTORS
330
17A0E
102
}
330
17A0E
100
AcDbXrecord
280
     1
102
RTVSPost2010Prop28
280
     0
102
RTVSPost2010PropOp28
 70
     1
102
RTVSPost2010Prop29
280
     1
102
RTVSPost2010PropOp29
 70
     1
102
RTVSPost2010Prop30
280
     1
102
RTVSPost2010PropOp30
 70
     1
102
RTVSPost2010Prop31
280
     0
102
RTVSPost2010PropOp31
 70
     1
102
RTVSPost2010Prop32
280
     0
102
RTVSPost2010PropOp32
 70
     1
102
RTVSPost2010Prop33
280
     0
102
RTVSPost2010PropOp33
 70
     1
102
RTVSPost2010Prop34
280
     0
102
RTVSPost2010PropOp34
 70
     1
102
RTVSPost2010Prop35
280
     0
102
RTVSPost2010PropOp35
 70
     1
102
RTVSPost2010Prop36
280
     0
102
RTVSPost2010PropOp36
 70
     1
102
RTVSPost2010Prop37
 90
       50
102
RTVSPost2010PropOp37
 70
     1
102
RTVSPost2010Prop38
140
0.0
102
RTVSPost2010PropOp38
 70
     1
102
RTVSPost2010Prop39
140
1.0
102
RTVSPost2010PropOp39
 70
     1
102
RTVSPost2010Prop40
 90
        0
102
RTVSPost2010PropOp40
 70
     1
102
RTVSPost2010Prop41ColorIndex
 90
       18
102
RTVSPost2010Prop41ColorRGB
 90
        0
102
RTVSPost2010PropOp41
 70
     1
102
RTVSPost2010Prop42
 90
       50
102
RTVSPost2010PropOp42
 70
     1
102
RTVSPost2010Prop43
 90
        3
102
RTVSPost2010PropOp43
 70
     1
102
RTVSPost2010Prop44ColorIndex
 90
        5
102
RTVSPost2010Prop44ColorRGB
 90
      255
102
RTVSPost2010PropOp44
 70
     1
102
RTVSPost2010Prop45
280
     0
102
RTVSPost2010PropOp45
 70
     1
102
RTVSPost2010Prop46
 90
       50
102
RTVSPost2010PropOp46
 70
     1
102
RTVSPost2010Prop47
 90
       50
102
RTVSPost2010PropOp47
 70
     1
102
RTVSPost2010Prop48
 90
       50
102
RTVSPost2010PropOp48
 70
     1
102
RTVSPost2010Prop49
280
     0
102
RTVSPost2010PropOp49
 70
     1
102
RTVSPost2010Prop50
 90
       50
102
RTVSPost2010PropOp50
 70
     1
102
RTVSPost2010Prop51ColorIndex
 90
      256
102
RTVSPost2010Prop51ColorRGB
 90
-16777216
102
RTVSPost2010PropOp51
 70
     0
102
RTVSPost2010Prop52
140
1.0
102
RTVSPost2010PropOp52
 70
     0
102
RTVSPost2010Prop53
 90
        2
102
RTVSPost2010PropOp53
 70
     1
102
RTVSPost2010Prop54
  1
strokes_ogs.tif
102
RTVSPost2010PropOp54
 70
     1
102
RTVSPost2010Prop55
280
     0
102
RTVSPost2010PropOp55
 70
     1
102
RTVSPost2010Prop56
140
1.0
102
RTVSPost2010PropOp56
 70
     1
102
RTVSPost2010Prop57
140
1.0
102
RTVSPost2010PropOp57
 70
     1
  0
XRECORD
  5
17A29
102
{ACAD_REACTORS
330
17A28
102
}
330
17A28
100
AcDbXrecord
280
     1
102
RTVSPost2010Prop28
280
     0
102
RTVSPost2010PropOp28
 70
     0
102
RTVSPost2010Prop29
280
     1
102
RTVSPost2010PropOp29
 70
     0
102
RTVSPost2010Prop30
280
     1
102
RTVSPost2010PropOp30
 70
     0
102
RTVSPost2010Prop31
280
     0
102
RTVSPost2010PropOp31
 70
     0
102
RTVSPost2010Prop32
280
     0
102
RTVSPost2010PropOp32
 70
     0
102
RTVSPost2010Prop33
280
     0
102
RTVSPost2010PropOp33
 70
     0
102
RTVSPost2010Prop34
280
     0
102
RTVSPost2010PropOp34
 70
     0
102
RTVSPost2010Prop35
280
     0
102
RTVSPost2010PropOp35
 70
     0
102
RTVSPost2010Prop36
280
     0
102
RTVSPost2010PropOp36
 70
     0
102
RTVSPost2010Prop37
 90
       50
102
RTVSPost2010PropOp37
 70
     0
102
RTVSPost2010Prop38
140
0.0
102
RTVSPost2010PropOp38
 70
     0
102
RTVSPost2010Prop39
140
1.0
102
RTVSPost2010PropOp39
 70
     0
102
RTVSPost2010Prop40
 90
        0
102
RTVSPost2010PropOp40
 70
     0
102
RTVSPost2010Prop41ColorIndex
 90
       18
102
RTVSPost2010Prop41ColorRGB
 90
        0
102
RTVSPost2010PropOp41
 70
     0
102
RTVSPost2010Prop42
 90
       50
102
RTVSPost2010PropOp42
 70
     0
102
RTVSPost2010Prop43
 90
        3
102
RTVSPost2010PropOp43
 70
     0
102
RTVSPost2010Prop44ColorIndex
 90
        5
102
RTVSPost2010Prop44ColorRGB
 90
      255
102
RTVSPost2010PropOp44
 70
     0
102
RTVSPost2010Prop45
280
     0
102
RTVSPost2010PropOp45
 70
     0
102
RTVSPost2010Prop46
 90
       50
102
RTVSPost2010PropOp46
 70
     0
102
RTVSPost2010Prop47
 90
       50
102
RTVSPost2010PropOp47
 70
     0
102
RTVSPost2010Prop48
 90
       50
102
RTVSPost2010PropOp48
 70
     0
102
RTVSPost2010Prop49
280
     0
102
RTVSPost2010PropOp49
 70
     0
102
RTVSPost2010Prop50
 90
       50
102
RTVSPost2010PropOp50
 70
     0
102
RTVSPost2010Prop51ColorIndex
 90
      256
102
RTVSPost2010Prop51ColorRGB
 90
-16777216
102
RTVSPost2010PropOp51
 70
     0
102
RTVSPost2010Prop52
140
1.0
102
RTVSPost2010PropOp52
 70
     0
102
RTVSPost2010Prop53
 90
        2
102
RTVSPost2010PropOp53
 70
     0
102
RTVSPost2010Prop54
  1
strokes_ogs.tif
102
RTVSPost2010PropOp54
 70
     0
102
RTVSPost2010Prop55
280
     0
102
RTVSPost2010PropOp55
 70
     0
102
RTVSPost2010Prop56
140
1.0
102
RTVSPost2010PropOp56
 70
     0
102
RTVSPost2010Prop57
140
1.0
102
RTVSPost2010PropOp57
 70
     0
  0
XRECORD
  5
17A17
102
{ACAD_REACTORS
330
17A16
102
}
330
17A16
100
AcDbXrecord
280
     1
102
RTVSPost2010Prop28
280
     0
102
RTVSPost2010PropOp28
 70
     1
102
RTVSPost2010Prop29
280
     1
102
RTVSPost2010PropOp29
 70
     1
102
RTVSPost2010Prop30
280
     1
102
RTVSPost2010PropOp30
 70
     1
102
RTVSPost2010Prop31
280
     0
102
RTVSPost2010PropOp31
 70
     1
102
RTVSPost2010Prop32
280
     0
102
RTVSPost2010PropOp32
 70
     1
102
RTVSPost2010Prop33
280
     0
102
RTVSPost2010PropOp33
 70
     1
102
RTVSPost2010Prop34
280
     0
102
RTVSPost2010PropOp34
 70
     1
102
RTVSPost2010Prop35
280
     0
102
RTVSPost2010PropOp35
 70
     1
102
RTVSPost2010Prop36
280
     0
102
RTVSPost2010PropOp36
 70
     1
102
RTVSPost2010Prop37
 90
       50
102
RTVSPost2010PropOp37
 70
     1
102
RTVSPost2010Prop38
140
0.0
102
RTVSPost2010PropOp38
 70
     1
102
RTVSPost2010Prop39
140
1.0
102
RTVSPost2010PropOp39
 70
     1
102
RTVSPost2010Prop40
 90
        0
102
RTVSPost2010PropOp40
 70
     1
102
RTVSPost2010Prop41ColorIndex
 90
       18
102
RTVSPost2010Prop41ColorRGB
 90
        0
102
RTVSPost2010PropOp41
 70
     1
102
RTVSPost2010Prop42
 90
       50
102
RTVSPost2010PropOp42
 70
     1
102
RTVSPost2010Prop43
 90
        3
102
RTVSPost2010PropOp43
 70
     1
102
RTVSPost2010Prop44ColorIndex
 90
        5
102
RTVSPost2010Prop44ColorRGB
 90
      255
102
RTVSPost2010PropOp44
 70
     1
102
RTVSPost2010Prop45
280
     0
102
RTVSPost2010PropOp45
 70
     1
102
RTVSPost2010Prop46
 90
       50
102
RTVSPost2010PropOp46
 70
     1
102
RTVSPost2010Prop47
 90
       50
102
RTVSPost2010PropOp47
 70
     1
102
RTVSPost2010Prop48
 90
       50
102
RTVSPost2010PropOp48
 70
     1
102
RTVSPost2010Prop49
280
     0
102
RTVSPost2010PropOp49
 70
     1
102
RTVSPost2010Prop50
 90
       50
102
RTVSPost2010PropOp50
 70
     1
102
RTVSPost2010Prop51ColorIndex
 90
      256
102
RTVSPost2010Prop51ColorRGB
 90
-16777216
102
RTVSPost2010PropOp51
 70
     0
102
RTVSPost2010Prop52
140
1.0
102
RTVSPost2010PropOp52
 70
     0
102
RTVSPost2010Prop53
 90
        2
102
RTVSPost2010PropOp53
 70
     1
102
RTVSPost2010Prop54
  1
strokes_ogs.tif
102
RTVSPost2010PropOp54
 70
     1
102
RTVSPost2010Prop55
280
     0
102
RTVSPost2010PropOp55
 70
     1
102
RTVSPost2010Prop56
140
1.0
102
RTVSPost2010PropOp56
 70
     1
102
RTVSPost2010Prop57
140
1.0
102
RTVSPost2010PropOp57
 70
     1
  0
XRECORD
  5
179FB
102
{ACAD_REACTORS
330
179FA
102
}
330
179FA
100
AcDbXrecord
280
     1
102
RTVSPost2010Prop28
280
     0
102
RTVSPost2010PropOp28
 70
     1
102
RTVSPost2010Prop29
280
     1
102
RTVSPost2010PropOp29
 70
     1
102
RTVSPost2010Prop30
280
     1
102
RTVSPost2010PropOp30
 70
     1
102
RTVSPost2010Prop31
280
     0
102
RTVSPost2010PropOp31
 70
     1
102
RTVSPost2010Prop32
280
     0
102
RTVSPost2010PropOp32
 70
     1
102
RTVSPost2010Prop33
280
     0
102
RTVSPost2010PropOp33
 70
     1
102
RTVSPost2010Prop34
280
     0
102
RTVSPost2010PropOp34
 70
     1
102
RTVSPost2010Prop35
280
     0
102
RTVSPost2010PropOp35
 70
     1
102
RTVSPost2010Prop36
280
     0
102
RTVSPost2010PropOp36
 70
     1
102
RTVSPost2010Prop37
 90
       50
102
RTVSPost2010PropOp37
 70
     1
102
RTVSPost2010Prop38
140
0.0
102
RTVSPost2010PropOp38
 70
     1
102
RTVSPost2010Prop39
140
1.0
102
RTVSPost2010PropOp39
 70
     1
102
RTVSPost2010Prop40
 90
        0
102
RTVSPost2010PropOp40
 70
     1
102
RTVSPost2010Prop41ColorIndex
 90
       18
102
RTVSPost2010Prop41ColorRGB
 90
        0
102
RTVSPost2010PropOp41
 70
     1
102
RTVSPost2010Prop42
 90
       50
102
RTVSPost2010PropOp42
 70
     1
102
RTVSPost2010Prop43
 90
        3
102
RTVSPost2010PropOp43
 70
     1
102
RTVSPost2010Prop44ColorIndex
 90
        5
102
RTVSPost2010Prop44ColorRGB
 90
      255
102
RTVSPost2010PropOp44
 70
     1
102
RTVSPost2010Prop45
280
     0
102
RTVSPost2010PropOp45
 70
     1
102
RTVSPost2010Prop46
 90
       50
102
RTVSPost2010PropOp46
 70
     1
102
RTVSPost2010Prop47
 90
       50
102
RTVSPost2010PropOp47
 70
     1
102
RTVSPost2010Prop48
 90
       50
102
RTVSPost2010PropOp48
 70
     1
102
RTVSPost2010Prop49
280
     0
102
RTVSPost2010PropOp49
 70
     1
102
RTVSPost2010Prop50
 90
       50
102
RTVSPost2010PropOp50
 70
     1
102
RTVSPost2010Prop51ColorIndex
 90
      256
102
RTVSPost2010Prop51ColorRGB
 90
-16777216
102
RTVSPost2010PropOp51
 70
     0
102
RTVSPost2010Prop52
140
1.0
102
RTVSPost2010PropOp52
 70
     0
102
RTVSPost2010Prop53
 90
        2
102
RTVSPost2010PropOp53
 70
     1
102
RTVSPost2010Prop54
  1
strokes_ogs.tif
102
RTVSPost2010PropOp54
 70
     1
102
RTVSPost2010Prop55
280
     0
102
RTVSPost2010PropOp55
 70
     1
102
RTVSPost2010Prop56
140
1.0
102
RTVSPost2010PropOp56
 70
     1
102
RTVSPost2010Prop57
140
1.0
102
RTVSPost2010PropOp57
 70
     1
  0
XRECORD
  5
179FD
102
{ACAD_REACTORS
330
179FC
102
}
330
179FC
100
AcDbXrecord
280
     1
102
RTVSPost2010Prop28
280
     0
102
RTVSPost2010PropOp28
 70
     1
102
RTVSPost2010Prop29
280
     1
102
RTVSPost2010PropOp29
 70
     1
102
RTVSPost2010Prop30
280
     1
102
RTVSPost2010PropOp30
 70
     1
102
RTVSPost2010Prop31
280
     0
102
RTVSPost2010PropOp31
 70
     1
102
RTVSPost2010Prop32
280
     0
102
RTVSPost2010PropOp32
 70
     1
102
RTVSPost2010Prop33
280
     0
102
RTVSPost2010PropOp33
 70
     1
102
RTVSPost2010Prop34
280
     0
102
RTVSPost2010PropOp34
 70
     1
102
RTVSPost2010Prop35
280
     0
102
RTVSPost2010PropOp35
 70
     1
102
RTVSPost2010Prop36
280
     0
102
RTVSPost2010PropOp36
 70
     1
102
RTVSPost2010Prop37
 90
       50
102
RTVSPost2010PropOp37
 70
     1
102
RTVSPost2010Prop38
140
0.0
102
RTVSPost2010PropOp38
 70
     1
102
RTVSPost2010Prop39
140
1.0
102
RTVSPost2010PropOp39
 70
     1
102
RTVSPost2010Prop40
 90
        0
102
RTVSPost2010PropOp40
 70
     1
102
RTVSPost2010Prop41ColorIndex
 90
       18
102
RTVSPost2010Prop41ColorRGB
 90
        0
102
RTVSPost2010PropOp41
 70
     1
102
RTVSPost2010Prop42
 90
       50
102
RTVSPost2010PropOp42
 70
     1
102
RTVSPost2010Prop43
 90
        3
102
RTVSPost2010PropOp43
 70
     1
102
RTVSPost2010Prop44ColorIndex
 90
        5
102
RTVSPost2010Prop44ColorRGB
 90
      255
102
RTVSPost2010PropOp44
 70
     1
102
RTVSPost2010Prop45
280
     0
102
RTVSPost2010PropOp45
 70
     1
102
RTVSPost2010Prop46
 90
       50
102
RTVSPost2010PropOp46
 70
     1
102
RTVSPost2010Prop47
 90
       50
102
RTVSPost2010PropOp47
 70
     1
102
RTVSPost2010Prop48
 90
       50
102
RTVSPost2010PropOp48
 70
     1
102
RTVSPost2010Prop49
280
     0
102
RTVSPost2010PropOp49
 70
     1
102
RTVSPost2010Prop50
 90
       50
102
RTVSPost2010PropOp50
 70
     1
102
RTVSPost2010Prop51ColorIndex
 90
      256
102
RTVSPost2010Prop51ColorRGB
 90
-16777216
102
RTVSPost2010PropOp51
 70
     0
102
RTVSPost2010Prop52
140
1.0
102
RTVSPost2010PropOp52
 70
     0
102
RTVSPost2010Prop53
 90
        2
102
RTVSPost2010PropOp53
 70
     1
102
RTVSPost2010Prop54
  1
strokes_ogs.tif
102
RTVSPost2010PropOp54
 70
     1
102
RTVSPost2010Prop55
280
     0
102
RTVSPost2010PropOp55
 70
     1
102
RTVSPost2010Prop56
140
1.0
102
RTVSPost2010PropOp56
 70
     1
102
RTVSPost2010Prop57
140
1.0
102
RTVSPost2010PropOp57
 70
     1
  0
XRECORD
  5
179FF
102
{ACAD_REACTORS
330
179FE
102
}
330
179FE
100
AcDbXrecord
280
     1
102
RTVSPost2010Prop28
280
     0
102
RTVSPost2010PropOp28
 70
     1
102
RTVSPost2010Prop29
280
     1
102
RTVSPost2010PropOp29
 70
     1
102
RTVSPost2010Prop30
280
     1
102
RTVSPost2010PropOp30
 70
     1
102
RTVSPost2010Prop31
280
     0
102
RTVSPost2010PropOp31
 70
     1
102
RTVSPost2010Prop32
280
     0
102
RTVSPost2010PropOp32
 70
     1
102
RTVSPost2010Prop33
280
     0
102
RTVSPost2010PropOp33
 70
     1
102
RTVSPost2010Prop34
280
     0
102
RTVSPost2010PropOp34
 70
     1
102
RTVSPost2010Prop35
280
     0
102
RTVSPost2010PropOp35
 70
     1
102
RTVSPost2010Prop36
280
     0
102
RTVSPost2010PropOp36
 70
     1
102
RTVSPost2010Prop37
 90
       50
102
RTVSPost2010PropOp37
 70
     1
102
RTVSPost2010Prop38
140
0.0
102
RTVSPost2010PropOp38
 70
     1
102
RTVSPost2010Prop39
140
1.0
102
RTVSPost2010PropOp39
 70
     1
102
RTVSPost2010Prop40
 90
        0
102
RTVSPost2010PropOp40
 70
     1
102
RTVSPost2010Prop41ColorIndex
 90
       18
102
RTVSPost2010Prop41ColorRGB
 90
        0
102
RTVSPost2010PropOp41
 70
     1
102
RTVSPost2010Prop42
 90
       50
102
RTVSPost2010PropOp42
 70
     1
102
RTVSPost2010Prop43
 90
        3
102
RTVSPost2010PropOp43
 70
     1
102
RTVSPost2010Prop44ColorIndex
 90
        5
102
RTVSPost2010Prop44ColorRGB
 90
      255
102
RTVSPost2010PropOp44
 70
     1
102
RTVSPost2010Prop45
280
     0
102
RTVSPost2010PropOp45
 70
     1
102
RTVSPost2010Prop46
 90
       50
102
RTVSPost2010PropOp46
 70
     1
102
RTVSPost2010Prop47
 90
       50
102
RTVSPost2010PropOp47
 70
     1
102
RTVSPost2010Prop48
 90
       50
102
RTVSPost2010PropOp48
 70
     1
102
RTVSPost2010Prop49
280
     0
102
RTVSPost2010PropOp49
 70
     1
102
RTVSPost2010Prop50
 90
       50
102
RTVSPost2010PropOp50
 70
     1
102
RTVSPost2010Prop51ColorIndex
 90
      256
102
RTVSPost2010Prop51ColorRGB
 90
-16777216
102
RTVSPost2010PropOp51
 70
     0
102
RTVSPost2010Prop52
140
1.0
102
RTVSPost2010PropOp52
 70
     0
102
RTVSPost2010Prop53
 90
        2
102
RTVSPost2010PropOp53
 70
     1
102
RTVSPost2010Prop54
  1
strokes_ogs.tif
102
RTVSPost2010PropOp54
 70
     1
102
RTVSPost2010Prop55
280
     0
102
RTVSPost2010PropOp55
 70
     1
102
RTVSPost2010Prop56
140
1.0
102
RTVSPost2010PropOp56
 70
     1
102
RTVSPost2010Prop57
140
1.0
102
RTVSPost2010PropOp57
 70
     1
  0
XRECORD
  5
17A01
102
{ACAD_REACTORS
330
17A00
102
}
330
17A00
100
AcDbXrecord
280
     1
102
RTVSPost2010Prop28
280
     0
102
RTVSPost2010PropOp28
 70
     1
102
RTVSPost2010Prop29
280
     1
102
RTVSPost2010PropOp29
 70
     1
102
RTVSPost2010Prop30
280
     1
102
RTVSPost2010PropOp30
 70
     1
102
RTVSPost2010Prop31
280
     0
102
RTVSPost2010PropOp31
 70
     1
102
RTVSPost2010Prop32
280
     0
102
RTVSPost2010PropOp32
 70
     1
102
RTVSPost2010Prop33
280
     0
102
RTVSPost2010PropOp33
 70
     1
102
RTVSPost2010Prop34
280
     0
102
RTVSPost2010PropOp34
 70
     1
102
RTVSPost2010Prop35
280
     0
102
RTVSPost2010PropOp35
 70
     1
102
RTVSPost2010Prop36
280
     0
102
RTVSPost2010PropOp36
 70
     1
102
RTVSPost2010Prop37
 90
       50
102
RTVSPost2010PropOp37
 70
     1
102
RTVSPost2010Prop38
140
0.0
102
RTVSPost2010PropOp38
 70
     1
102
RTVSPost2010Prop39
140
1.0
102
RTVSPost2010PropOp39
 70
     1
102
RTVSPost2010Prop40
 90
        0
102
RTVSPost2010PropOp40
 70
     1
102
RTVSPost2010Prop41ColorIndex
 90
       18
102
RTVSPost2010Prop41ColorRGB
 90
        0
102
RTVSPost2010PropOp41
 70
     1
102
RTVSPost2010Prop42
 90
       50
102
RTVSPost2010PropOp42
 70
     1
102
RTVSPost2010Prop43
 90
        3
102
RTVSPost2010PropOp43
 70
     1
102
RTVSPost2010Prop44ColorIndex
 90
        5
102
RTVSPost2010Prop44ColorRGB
 90
      255
102
RTVSPost2010PropOp44
 70
     1
102
RTVSPost2010Prop45
280
     0
102
RTVSPost2010PropOp45
 70
     1
102
RTVSPost2010Prop46
 90
       50
102
RTVSPost2010PropOp46
 70
     1
102
RTVSPost2010Prop47
 90
       50
102
RTVSPost2010PropOp47
 70
     1
102
RTVSPost2010Prop48
 90
       50
102
RTVSPost2010PropOp48
 70
     1
102
RTVSPost2010Prop49
280
     0
102
RTVSPost2010PropOp49
 70
     1
102
RTVSPost2010Prop50
 90
       50
102
RTVSPost2010PropOp50
 70
     1
102
RTVSPost2010Prop51ColorIndex
 90
      256
102
RTVSPost2010Prop51ColorRGB
 90
-16777216
102
RTVSPost2010PropOp51
 70
     0
102
RTVSPost2010Prop52
140
1.0
102
RTVSPost2010PropOp52
 70
     0
102
RTVSPost2010Prop53
 90
        2
102
RTVSPost2010PropOp53
 70
     1
102
RTVSPost2010Prop54
  1
strokes_ogs.tif
102
RTVSPost2010PropOp54
 70
     1
102
RTVSPost2010Prop55
280
     0
102
RTVSPost2010PropOp55
 70
     1
102
RTVSPost2010Prop56
140
1.0
102
RTVSPost2010PropOp56
 70
     1
102
RTVSPost2010Prop57
140
1.0
102
RTVSPost2010PropOp57
 70
     1
  0
XRECORD
  5
17A09
102
{ACAD_REACTORS
330
17A08
102
}
330
17A08
100
AcDbXrecord
280
     1
102
RTVSPost2010Prop28
280
     0
102
RTVSPost2010PropOp28
 70
     1
102
RTVSPost2010Prop29
280
     1
102
RTVSPost2010PropOp29
 70
     1
102
RTVSPost2010Prop30
280
     1
102
RTVSPost2010PropOp30
 70
     1
102
RTVSPost2010Prop31
280
     0
102
RTVSPost2010PropOp31
 70
     1
102
RTVSPost2010Prop32
280
     0
102
RTVSPost2010PropOp32
 70
     1
102
RTVSPost2010Prop33
280
     0
102
RTVSPost2010PropOp33
 70
     1
102
RTVSPost2010Prop34
280
     0
102
RTVSPost2010PropOp34
 70
     1
102
RTVSPost2010Prop35
280
     0
102
RTVSPost2010PropOp35
 70
     1
102
RTVSPost2010Prop36
280
     0
102
RTVSPost2010PropOp36
 70
     1
102
RTVSPost2010Prop37
 90
       50
102
RTVSPost2010PropOp37
 70
     1
102
RTVSPost2010Prop38
140
0.0
102
RTVSPost2010PropOp38
 70
     1
102
RTVSPost2010Prop39
140
1.0
102
RTVSPost2010PropOp39
 70
     1
102
RTVSPost2010Prop40
 90
        0
102
RTVSPost2010PropOp40
 70
     1
102
RTVSPost2010Prop41ColorIndex
 90
       18
102
RTVSPost2010Prop41ColorRGB
 90
        0
102
RTVSPost2010PropOp41
 70
     1
102
RTVSPost2010Prop42
 90
       50
102
RTVSPost2010PropOp42
 70
     1
102
RTVSPost2010Prop43
 90
        3
102
RTVSPost2010PropOp43
 70
     1
102
RTVSPost2010Prop44ColorIndex
 90
        5
102
RTVSPost2010Prop44ColorRGB
 90
      255
102
RTVSPost2010PropOp44
 70
     1
102
RTVSPost2010Prop45
280
     0
102
RTVSPost2010PropOp45
 70
     1
102
RTVSPost2010Prop46
 90
       50
102
RTVSPost2010PropOp46
 70
     1
102
RTVSPost2010Prop47
 90
       50
102
RTVSPost2010PropOp47
 70
     1
102
RTVSPost2010Prop48
 90
       50
102
RTVSPost2010PropOp48
 70
     1
102
RTVSPost2010Prop49
280
     0
102
RTVSPost2010PropOp49
 70
     1
102
RTVSPost2010Prop50
 90
       50
102
RTVSPost2010PropOp50
 70
     1
102
RTVSPost2010Prop51ColorIndex
 90
      256
102
RTVSPost2010Prop51ColorRGB
 90
-16777216
102
RTVSPost2010PropOp51
 70
     0
102
RTVSPost2010Prop52
140
1.0
102
RTVSPost2010PropOp52
 70
     0
102
RTVSPost2010Prop53
 90
        2
102
RTVSPost2010PropOp53
 70
     1
102
RTVSPost2010Prop54
  1
strokes_ogs.tif
102
RTVSPost2010PropOp54
 70
     1
102
RTVSPost2010Prop55
280
     0
102
RTVSPost2010PropOp55
 70
     1
102
RTVSPost2010Prop56
140
1.0
102
RTVSPost2010PropOp56
 70
     1
102
RTVSPost2010Prop57
140
1.0
102
RTVSPost2010PropOp57
 70
     1
  0
XRECORD
  5
17A25
102
{ACAD_REACTORS
330
17A24
102
}
330
17A24
100
AcDbXrecord
280
     1
102
RTVSPost2010Prop28
280
     0
102
RTVSPost2010PropOp28
 70
     0
102
RTVSPost2010Prop29
280
     1
102
RTVSPost2010PropOp29
 70
     0
102
RTVSPost2010Prop30
280
     1
102
RTVSPost2010PropOp30
 70
     0
102
RTVSPost2010Prop31
280
     0
102
RTVSPost2010PropOp31
 70
     0
102
RTVSPost2010Prop32
280
     0
102
RTVSPost2010PropOp32
 70
     0
102
RTVSPost2010Prop33
280
     0
102
RTVSPost2010PropOp33
 70
     0
102
RTVSPost2010Prop34
280
     0
102
RTVSPost2010PropOp34
 70
     0
102
RTVSPost2010Prop35
280
     0
102
RTVSPost2010PropOp35
 70
     0
102
RTVSPost2010Prop36
280
     0
102
RTVSPost2010PropOp36
 70
     0
102
RTVSPost2010Prop37
 90
       50
102
RTVSPost2010PropOp37
 70
     0
102
RTVSPost2010Prop38
140
0.0
102
RTVSPost2010PropOp38
 70
     0
102
RTVSPost2010Prop39
140
1.0
102
RTVSPost2010PropOp39
 70
     0
102
RTVSPost2010Prop40
 90
        0
102
RTVSPost2010PropOp40
 70
     0
102
RTVSPost2010Prop41ColorIndex
 90
       18
102
RTVSPost2010Prop41ColorRGB
 90
        0
102
RTVSPost2010PropOp41
 70
     0
102
RTVSPost2010Prop42
 90
       50
102
RTVSPost2010PropOp42
 70
     0
102
RTVSPost2010Prop43
 90
        3
102
RTVSPost2010PropOp43
 70
     0
102
RTVSPost2010Prop44ColorIndex
 90
        5
102
RTVSPost2010Prop44ColorRGB
 90
      255
102
RTVSPost2010PropOp44
 70
     0
102
RTVSPost2010Prop45
280
     0
102
RTVSPost2010PropOp45
 70
     0
102
RTVSPost2010Prop46
 90
       50
102
RTVSPost2010PropOp46
 70
     0
102
RTVSPost2010Prop47
 90
       50
102
RTVSPost2010PropOp47
 70
     0
102
RTVSPost2010Prop48
 90
       50
102
RTVSPost2010PropOp48
 70
     0
102
RTVSPost2010Prop49
280
     0
102
RTVSPost2010PropOp49
 70
     0
102
RTVSPost2010Prop50
 90
       50
102
RTVSPost2010PropOp50
 70
     0
102
RTVSPost2010Prop51ColorIndex
 90
      256
102
RTVSPost2010Prop51ColorRGB
 90
-16777216
102
RTVSPost2010PropOp51
 70
     0
102
RTVSPost2010Prop52
140
1.0
102
RTVSPost2010PropOp52
 70
     0
102
RTVSPost2010Prop53
 90
        2
102
RTVSPost2010PropOp53
 70
     0
102
RTVSPost2010Prop54
  1
strokes_ogs.tif
102
RTVSPost2010PropOp54
 70
     0
102
RTVSPost2010Prop55
280
     0
102
RTVSPost2010PropOp55
 70
     0
102
RTVSPost2010Prop56
140
1.0
102
RTVSPost2010PropOp56
 70
     0
102
RTVSPost2010Prop57
140
1.0
102
RTVSPost2010PropOp57
 70
     0
  0
XRECORD
  5
17A15
102
{ACAD_REACTORS
330
17A14
102
}
330
17A14
100
AcDbXrecord
280
     1
102
RTVSPost2010Prop28
280
     0
102
RTVSPost2010PropOp28
 70
     1
102
RTVSPost2010Prop29
280
     1
102
RTVSPost2010PropOp29
 70
     1
102
RTVSPost2010Prop30
280
     1
102
RTVSPost2010PropOp30
 70
     1
102
RTVSPost2010Prop31
280
     0
102
RTVSPost2010PropOp31
 70
     1
102
RTVSPost2010Prop32
280
     0
102
RTVSPost2010PropOp32
 70
     1
102
RTVSPost2010Prop33
280
     0
102
RTVSPost2010PropOp33
 70
     1
102
RTVSPost2010Prop34
280
     0
102
RTVSPost2010PropOp34
 70
     1
102
RTVSPost2010Prop35
280
     0
102
RTVSPost2010PropOp35
 70
     1
102
RTVSPost2010Prop36
280
     0
102
RTVSPost2010PropOp36
 70
     1
102
RTVSPost2010Prop37
 90
       50
102
RTVSPost2010PropOp37
 70
     1
102
RTVSPost2010Prop38
140
0.0
102
RTVSPost2010PropOp38
 70
     1
102
RTVSPost2010Prop39
140
1.0
102
RTVSPost2010PropOp39
 70
     1
102
RTVSPost2010Prop40
 90
        0
102
RTVSPost2010PropOp40
 70
     1
102
RTVSPost2010Prop41ColorIndex
 90
       18
102
RTVSPost2010Prop41ColorRGB
 90
        0
102
RTVSPost2010PropOp41
 70
     1
102
RTVSPost2010Prop42
 90
       50
102
RTVSPost2010PropOp42
 70
     1
102
RTVSPost2010Prop43
 90
        3
102
RTVSPost2010PropOp43
 70
     1
102
RTVSPost2010Prop44ColorIndex
 90
        5
102
RTVSPost2010Prop44ColorRGB
 90
      255
102
RTVSPost2010PropOp44
 70
     1
102
RTVSPost2010Prop45
280
     0
102
RTVSPost2010PropOp45
 70
     1
102
RTVSPost2010Prop46
 90
       50
102
RTVSPost2010PropOp46
 70
     1
102
RTVSPost2010Prop47
 90
       50
102
RTVSPost2010PropOp47
 70
     1
102
RTVSPost2010Prop48
 90
       50
102
RTVSPost2010PropOp48
 70
     1
102
RTVSPost2010Prop49
280
     0
102
RTVSPost2010PropOp49
 70
     1
102
RTVSPost2010Prop50
 90
       50
102
RTVSPost2010PropOp50
 70
     1
102
RTVSPost2010Prop51ColorIndex
 90
      256
102
RTVSPost2010Prop51ColorRGB
 90
-16777216
102
RTVSPost2010PropOp51
 70
     0
102
RTVSPost2010Prop52
140
1.0
102
RTVSPost2010PropOp52
 70
     0
102
RTVSPost2010Prop53
 90
        2
102
RTVSPost2010PropOp53
 70
     1
102
RTVSPost2010Prop54
  1
strokes_ogs.tif
102
RTVSPost2010PropOp54
 70
     1
102
RTVSPost2010Prop55
280
     0
102
RTVSPost2010PropOp55
 70
     1
102
RTVSPost2010Prop56
140
1.0
102
RTVSPost2010PropOp56
 70
     1
102
RTVSPost2010Prop57
140
1.0
102
RTVSPost2010PropOp57
 70
     1
  0
XRECORD
  5
17A27
102
{ACAD_REACTORS
330
17A26
102
}
330
17A26
100
AcDbXrecord
280
     1
102
RTVSPost2010Prop28
280
     0
102
RTVSPost2010PropOp28
 70
     0
102
RTVSPost2010Prop29
280
     1
102
RTVSPost2010PropOp29
 70
     0
102
RTVSPost2010Prop30
280
     1
102
RTVSPost2010PropOp30
 70
     0
102
RTVSPost2010Prop31
280
     0
102
RTVSPost2010PropOp31
 70
     0
102
RTVSPost2010Prop32
280
     0
102
RTVSPost2010PropOp32
 70
     0
102
RTVSPost2010Prop33
280
     0
102
RTVSPost2010PropOp33
 70
     0
102
RTVSPost2010Prop34
280
     0
102
RTVSPost2010PropOp34
 70
     0
102
RTVSPost2010Prop35
280
     0
102
RTVSPost2010PropOp35
 70
     0
102
RTVSPost2010Prop36
280
     0
102
RTVSPost2010PropOp36
 70
     0
102
RTVSPost2010Prop37
 90
       50
102
RTVSPost2010PropOp37
 70
     0
102
RTVSPost2010Prop38
140
0.0
102
RTVSPost2010PropOp38
 70
     0
102
RTVSPost2010Prop39
140
1.0
102
RTVSPost2010PropOp39
 70
     0
102
RTVSPost2010Prop40
 90
        0
102
RTVSPost2010PropOp40
 70
     0
102
RTVSPost2010Prop41ColorIndex
 90
       18
102
RTVSPost2010Prop41ColorRGB
 90
        0
102
RTVSPost2010PropOp41
 70
     0
102
RTVSPost2010Prop42
 90
       50
102
RTVSPost2010PropOp42
 70
     0
102
RTVSPost2010Prop43
 90
        3
102
RTVSPost2010PropOp43
 70
     0
102
RTVSPost2010Prop44ColorIndex
 90
        5
102
RTVSPost2010Prop44ColorRGB
 90
      255
102
RTVSPost2010PropOp44
 70
     0
102
RTVSPost2010Prop45
280
     0
102
RTVSPost2010PropOp45
 70
     0
102
RTVSPost2010Prop46
 90
       50
102
RTVSPost2010PropOp46
 70
     0
102
RTVSPost2010Prop47
 90
       50
102
RTVSPost2010PropOp47
 70
     0
102
RTVSPost2010Prop48
 90
       50
102
RTVSPost2010PropOp48
 70
     0
102
RTVSPost2010Prop49
280
     0
102
RTVSPost2010PropOp49
 70
     0
102
RTVSPost2010Prop50
 90
       50
102
RTVSPost2010PropOp50
 70
     0
102
RTVSPost2010Prop51ColorIndex
 90
      256
102
RTVSPost2010Prop51ColorRGB
 90
-16777216
102
RTVSPost2010PropOp51
 70
     0
102
RTVSPost2010Prop52
140
1.0
102
RTVSPost2010PropOp52
 70
     0
102
RTVSPost2010Prop53
 90
        2
102
RTVSPost2010PropOp53
 70
     0
102
RTVSPost2010Prop54
  1
strokes_ogs.tif
102
RTVSPost2010PropOp54
 70
     0
102
RTVSPost2010Prop55
280
     0
102
RTVSPost2010PropOp55
 70
     0
102
RTVSPost2010Prop56
140
1.0
102
RTVSPost2010PropOp56
 70
     0
102
RTVSPost2010Prop57
140
1.0
102
RTVSPost2010PropOp57
 70
     0
  0
XRECORD
  5
17A0D
102
{ACAD_REACTORS
330
17A0C
102
}
330
17A0C
100
AcDbXrecord
280
     1
102
RTVSPost2010Prop28
280
     0
102
RTVSPost2010PropOp28
 70
     1
102
RTVSPost2010Prop29
280
     1
102
RTVSPost2010PropOp29
 70
     1
102
RTVSPost2010Prop30
280
     1
102
RTVSPost2010PropOp30
 70
     1
102
RTVSPost2010Prop31
280
     0
102
RTVSPost2010PropOp31
 70
     1
102
RTVSPost2010Prop32
280
     0
102
RTVSPost2010PropOp32
 70
     1
102
RTVSPost2010Prop33
280
     0
102
RTVSPost2010PropOp33
 70
     1
102
RTVSPost2010Prop34
280
     0
102
RTVSPost2010PropOp34
 70
     1
102
RTVSPost2010Prop35
280
     0
102
RTVSPost2010PropOp35
 70
     1
102
RTVSPost2010Prop36
280
     0
102
RTVSPost2010PropOp36
 70
     1
102
RTVSPost2010Prop37
 90
       50
102
RTVSPost2010PropOp37
 70
     1
102
RTVSPost2010Prop38
140
0.0
102
RTVSPost2010PropOp38
 70
     1
102
RTVSPost2010Prop39
140
1.0
102
RTVSPost2010PropOp39
 70
     1
102
RTVSPost2010Prop40
 90
        0
102
RTVSPost2010PropOp40
 70
     1
102
RTVSPost2010Prop41ColorIndex
 90
       18
102
RTVSPost2010Prop41ColorRGB
 90
        0
102
RTVSPost2010PropOp41
 70
     1
102
RTVSPost2010Prop42
 90
       50
102
RTVSPost2010PropOp42
 70
     1
102
RTVSPost2010Prop43
 90
        3
102
RTVSPost2010PropOp43
 70
     1
102
RTVSPost2010Prop44ColorIndex
 90
        5
102
RTVSPost2010Prop44ColorRGB
 90
      255
102
RTVSPost2010PropOp44
 70
     1
102
RTVSPost2010Prop45
280
     0
102
RTVSPost2010PropOp45
 70
     1
102
RTVSPost2010Prop46
 90
       50
102
RTVSPost2010PropOp46
 70
     1
102
RTVSPost2010Prop47
 90
       50
102
RTVSPost2010PropOp47
 70
     1
102
RTVSPost2010Prop48
 90
       50
102
RTVSPost2010PropOp48
 70
     1
102
RTVSPost2010Prop49
280
     0
102
RTVSPost2010PropOp49
 70
     1
102
RTVSPost2010Prop50
 90
       50
102
RTVSPost2010PropOp50
 70
     1
102
RTVSPost2010Prop51ColorIndex
 90
      256
102
RTVSPost2010Prop51ColorRGB
 90
-16777216
102
RTVSPost2010PropOp51
 70
     0
102
RTVSPost2010Prop52
140
1.0
102
RTVSPost2010PropOp52
 70
     0
102
RTVSPost2010Prop53
 90
        2
102
RTVSPost2010PropOp53
 70
     1
102
RTVSPost2010Prop54
  1
strokes_ogs.tif
102
RTVSPost2010PropOp54
 70
     1
102
RTVSPost2010Prop55
280
     0
102
RTVSPost2010PropOp55
 70
     1
102
RTVSPost2010Prop56
140
1.0
102
RTVSPost2010PropOp56
 70
     1
102
RTVSPost2010Prop57
140
1.0
102
RTVSPost2010PropOp57
 70
     1
  0
XRECORD
  5
17A23
102
{ACAD_REACTORS
330
17A22
102
}
330
17A22
100
AcDbXrecord
280
     1
102
RTVSPost2010Prop28
280
     0
102
RTVSPost2010PropOp28
 70
     1
102
RTVSPost2010Prop29
280
     1
102
RTVSPost2010PropOp29
 70
     1
102
RTVSPost2010Prop30
280
     1
102
RTVSPost2010PropOp30
 70
     1
102
RTVSPost2010Prop31
280
     0
102
RTVSPost2010PropOp31
 70
     1
102
RTVSPost2010Prop32
280
     0
102
RTVSPost2010PropOp32
 70
     1
102
RTVSPost2010Prop33
280
     0
102
RTVSPost2010PropOp33
 70
     1
102
RTVSPost2010Prop34
280
     0
102
RTVSPost2010PropOp34
 70
     1
102
RTVSPost2010Prop35
280
     0
102
RTVSPost2010PropOp35
 70
     1
102
RTVSPost2010Prop36
280
     0
102
RTVSPost2010PropOp36
 70
     1
102
RTVSPost2010Prop37
 90
       50
102
RTVSPost2010PropOp37
 70
     1
102
RTVSPost2010Prop38
140
0.0
102
RTVSPost2010PropOp38
 70
     1
102
RTVSPost2010Prop39
140
1.0
102
RTVSPost2010PropOp39
 70
     1
102
RTVSPost2010Prop40
 90
        0
102
RTVSPost2010PropOp40
 70
     1
102
RTVSPost2010Prop41ColorIndex
 90
       18
102
RTVSPost2010Prop41ColorRGB
 90
        0
102
RTVSPost2010PropOp41
 70
     1
102
RTVSPost2010Prop42
 90
       50
102
RTVSPost2010PropOp42
 70
     1
102
RTVSPost2010Prop43
 90
        3
102
RTVSPost2010PropOp43
 70
     1
102
RTVSPost2010Prop44ColorIndex
 90
        5
102
RTVSPost2010Prop44ColorRGB
 90
      255
102
RTVSPost2010PropOp44
 70
     1
102
RTVSPost2010Prop45
280
     0
102
RTVSPost2010PropOp45
 70
     1
102
RTVSPost2010Prop46
 90
       50
102
RTVSPost2010PropOp46
 70
     1
102
RTVSPost2010Prop47
 90
       50
102
RTVSPost2010PropOp47
 70
     1
102
RTVSPost2010Prop48
 90
       50
102
RTVSPost2010PropOp48
 70
     1
102
RTVSPost2010Prop49
280
     0
102
RTVSPost2010PropOp49
 70
     1
102
RTVSPost2010Prop50
 90
       50
102
RTVSPost2010PropOp50
 70
     1
102
RTVSPost2010Prop51ColorIndex
 90
      256
102
RTVSPost2010Prop51ColorRGB
 90
-16777216
102
RTVSPost2010PropOp51
 70
     0
102
RTVSPost2010Prop52
140
1.0
102
RTVSPost2010PropOp52
 70
     0
102
RTVSPost2010Prop53
 90
        2
102
RTVSPost2010PropOp53
 70
     1
102
RTVSPost2010Prop54
  1
strokes_ogs.tif
102
RTVSPost2010PropOp54
 70
     1
102
RTVSPost2010Prop55
280
     0
102
RTVSPost2010PropOp55
 70
     1
102
RTVSPost2010Prop56
140
1.0
102
RTVSPost2010PropOp56
 70
     1
102
RTVSPost2010Prop57
140
1.0
102
RTVSPost2010PropOp57
 70
     1
  0
XRECORD
  5
17A21
102
{ACAD_REACTORS
330
17A20
102
}
330
17A20
100
AcDbXrecord
280
     1
102
RTVSPost2010Prop28
280
     0
102
RTVSPost2010PropOp28
 70
     1
102
RTVSPost2010Prop29
280
     1
102
RTVSPost2010PropOp29
 70
     1
102
RTVSPost2010Prop30
280
     1
102
RTVSPost2010PropOp30
 70
     1
102
RTVSPost2010Prop31
280
     0
102
RTVSPost2010PropOp31
 70
     1
102
RTVSPost2010Prop32
280
     0
102
RTVSPost2010PropOp32
 70
     1
102
RTVSPost2010Prop33
280
     0
102
RTVSPost2010PropOp33
 70
     1
102
RTVSPost2010Prop34
280
     0
102
RTVSPost2010PropOp34
 70
     1
102
RTVSPost2010Prop35
280
     0
102
RTVSPost2010PropOp35
 70
     1
102
RTVSPost2010Prop36
280
     0
102
RTVSPost2010PropOp36
 70
     1
102
RTVSPost2010Prop37
 90
       50
102
RTVSPost2010PropOp37
 70
     1
102
RTVSPost2010Prop38
140
0.0
102
RTVSPost2010PropOp38
 70
     1
102
RTVSPost2010Prop39
140
1.0
102
RTVSPost2010PropOp39
 70
     1
102
RTVSPost2010Prop40
 90
        0
102
RTVSPost2010PropOp40
 70
     1
102
RTVSPost2010Prop41ColorIndex
 90
       18
102
RTVSPost2010Prop41ColorRGB
 90
        0
102
RTVSPost2010PropOp41
 70
     1
102
RTVSPost2010Prop42
 90
       50
102
RTVSPost2010PropOp42
 70
     1
102
RTVSPost2010Prop43
 90
        3
102
RTVSPost2010PropOp43
 70
     1
102
RTVSPost2010Prop44ColorIndex
 90
        5
102
RTVSPost2010Prop44ColorRGB
 90
      255
102
RTVSPost2010PropOp44
 70
     1
102
RTVSPost2010Prop45
280
     0
102
RTVSPost2010PropOp45
 70
     1
102
RTVSPost2010Prop46
 90
       50
102
RTVSPost2010PropOp46
 70
     1
102
RTVSPost2010Prop47
 90
       50
102
RTVSPost2010PropOp47
 70
     1
102
RTVSPost2010Prop48
 90
       50
102
RTVSPost2010PropOp48
 70
     1
102
RTVSPost2010Prop49
280
     0
102
RTVSPost2010PropOp49
 70
     1
102
RTVSPost2010Prop50
 90
       50
102
RTVSPost2010PropOp50
 70
     1
102
RTVSPost2010Prop51ColorIndex
 90
      256
102
RTVSPost2010Prop51ColorRGB
 90
-16777216
102
RTVSPost2010PropOp51
 70
     0
102
RTVSPost2010Prop52
140
1.0
102
RTVSPost2010PropOp52
 70
     0
102
RTVSPost2010Prop53
 90
        2
102
RTVSPost2010PropOp53
 70
     1
102
RTVSPost2010Prop54
  1
strokes_ogs.tif
102
RTVSPost2010PropOp54
 70
     1
102
RTVSPost2010Prop55
280
     0
102
RTVSPost2010PropOp55
 70
     1
102
RTVSPost2010Prop56
140
1.0
102
RTVSPost2010PropOp56
 70
     1
102
RTVSPost2010Prop57
140
1.0
102
RTVSPost2010PropOp57
 70
     1
  0
XRECORD
  5
17A1B
102
{ACAD_REACTORS
330
17A1A
102
}
330
17A1A
100
AcDbXrecord
280
     1
102
RTVSPost2010Prop28
280
     0
102
RTVSPost2010PropOp28
 70
     1
102
RTVSPost2010Prop29
280
     1
102
RTVSPost2010PropOp29
 70
     1
102
RTVSPost2010Prop30
280
     1
102
RTVSPost2010PropOp30
 70
     1
102
RTVSPost2010Prop31
280
     0
102
RTVSPost2010PropOp31
 70
     1
102
RTVSPost2010Prop32
280
     0
102
RTVSPost2010PropOp32
 70
     1
102
RTVSPost2010Prop33
280
     0
102
RTVSPost2010PropOp33
 70
     1
102
RTVSPost2010Prop34
280
     0
102
RTVSPost2010PropOp34
 70
     1
102
RTVSPost2010Prop35
280
     0
102
RTVSPost2010PropOp35
 70
     1
102
RTVSPost2010Prop36
280
     0
102
RTVSPost2010PropOp36
 70
     1
102
RTVSPost2010Prop37
 90
       50
102
RTVSPost2010PropOp37
 70
     1
102
RTVSPost2010Prop38
140
0.0
102
RTVSPost2010PropOp38
 70
     1
102
RTVSPost2010Prop39
140
1.0
102
RTVSPost2010PropOp39
 70
     1
102
RTVSPost2010Prop40
 90
        0
102
RTVSPost2010PropOp40
 70
     1
102
RTVSPost2010Prop41ColorIndex
 90
       18
102
RTVSPost2010Prop41ColorRGB
 90
        0
102
RTVSPost2010PropOp41
 70
     1
102
RTVSPost2010Prop42
 90
       50
102
RTVSPost2010PropOp42
 70
     1
102
RTVSPost2010Prop43
 90
        3
102
RTVSPost2010PropOp43
 70
     1
102
RTVSPost2010Prop44ColorIndex
 90
        5
102
RTVSPost2010Prop44ColorRGB
 90
      255
102
RTVSPost2010PropOp44
 70
     1
102
RTVSPost2010Prop45
280
     0
102
RTVSPost2010PropOp45
 70
     1
102
RTVSPost2010Prop46
 90
       50
102
RTVSPost2010PropOp46
 70
     1
102
RTVSPost2010Prop47
 90
       50
102
RTVSPost2010PropOp47
 70
     1
102
RTVSPost2010Prop48
 90
       50
102
RTVSPost2010PropOp48
 70
     1
102
RTVSPost2010Prop49
280
     0
102
RTVSPost2010PropOp49
 70
     1
102
RTVSPost2010Prop50
 90
       50
102
RTVSPost2010PropOp50
 70
     1
102
RTVSPost2010Prop51ColorIndex
 90
      256
102
RTVSPost2010Prop51ColorRGB
 90
-16777216
102
RTVSPost2010PropOp51
 70
     0
102
RTVSPost2010Prop52
140
1.0
102
RTVSPost2010PropOp52
 70
     0
102
RTVSPost2010Prop53
 90
        2
102
RTVSPost2010PropOp53
 70
     1
102
RTVSPost2010Prop54
  1
strokes_ogs.tif
102
RTVSPost2010PropOp54
 70
     1
102
RTVSPost2010Prop55
280
     0
102
RTVSPost2010PropOp55
 70
     1
102
RTVSPost2010Prop56
140
1.0
102
RTVSPost2010PropOp56
 70
     1
102
RTVSPost2010Prop57
140
1.0
102
RTVSPost2010PropOp57
 70
     1
  0
XRECORD
  5
17A1D
102
{ACAD_REACTORS
330
17A1C
102
}
330
17A1C
100
AcDbXrecord
280
     1
102
RTVSPost2010Prop28
280
     0
102
RTVSPost2010PropOp28
 70
     1
102
RTVSPost2010Prop29
280
     1
102
RTVSPost2010PropOp29
 70
     1
102
RTVSPost2010Prop30
280
     1
102
RTVSPost2010PropOp30
 70
     1
102
RTVSPost2010Prop31
280
     0
102
RTVSPost2010PropOp31
 70
     1
102
RTVSPost2010Prop32
280
     0
102
RTVSPost2010PropOp32
 70
     1
102
RTVSPost2010Prop33
280
     0
102
RTVSPost2010PropOp33
 70
     1
102
RTVSPost2010Prop34
280
     0
102
RTVSPost2010PropOp34
 70
     1
102
RTVSPost2010Prop35
280
     0
102
RTVSPost2010PropOp35
 70
     1
102
RTVSPost2010Prop36
280
     0
102
RTVSPost2010PropOp36
 70
     1
102
RTVSPost2010Prop37
 90
       50
102
RTVSPost2010PropOp37
 70
     1
102
RTVSPost2010Prop38
140
0.0
102
RTVSPost2010PropOp38
 70
     1
102
RTVSPost2010Prop39
140
1.0
102
RTVSPost2010PropOp39
 70
     1
102
RTVSPost2010Prop40
 90
        0
102
RTVSPost2010PropOp40
 70
     1
102
RTVSPost2010Prop41ColorIndex
 90
       18
102
RTVSPost2010Prop41ColorRGB
 90
        0
102
RTVSPost2010PropOp41
 70
     1
102
RTVSPost2010Prop42
 90
       50
102
RTVSPost2010PropOp42
 70
     1
102
RTVSPost2010Prop43
 90
        3
102
RTVSPost2010PropOp43
 70
     1
102
RTVSPost2010Prop44ColorIndex
 90
        5
102
RTVSPost2010Prop44ColorRGB
 90
      255
102
RTVSPost2010PropOp44
 70
     1
102
RTVSPost2010Prop45
280
     0
102
RTVSPost2010PropOp45
 70
     1
102
RTVSPost2010Prop46
 90
       50
102
RTVSPost2010PropOp46
 70
     1
102
RTVSPost2010Prop47
 90
       50
102
RTVSPost2010PropOp47
 70
     1
102
RTVSPost2010Prop48
 90
       50
102
RTVSPost2010PropOp48
 70
     1
102
RTVSPost2010Prop49
280
     0
102
RTVSPost2010PropOp49
 70
     1
102
RTVSPost2010Prop50
 90
       50
102
RTVSPost2010PropOp50
 70
     1
102
RTVSPost2010Prop51ColorIndex
 90
      256
102
RTVSPost2010Prop51ColorRGB
 90
-16777216
102
RTVSPost2010PropOp51
 70
     0
102
RTVSPost2010Prop52
140
1.0
102
RTVSPost2010PropOp52
 70
     0
102
RTVSPost2010Prop53
 90
        2
102
RTVSPost2010PropOp53
 70
     1
102
RTVSPost2010Prop54
  1
strokes_ogs.tif
102
RTVSPost2010PropOp54
 70
     1
102
RTVSPost2010Prop55
280
     0
102
RTVSPost2010PropOp55
 70
     1
102
RTVSPost2010Prop56
140
1.0
102
RTVSPost2010PropOp56
 70
     1
102
RTVSPost2010Prop57
140
1.0
102
RTVSPost2010PropOp57
 70
     1
  0
XRECORD
  5
17A13
102
{ACAD_REACTORS
330
17A12
102
}
330
17A12
100
AcDbXrecord
280
     1
102
RTVSPost2010Prop28
280
     0
102
RTVSPost2010PropOp28
 70
     1
102
RTVSPost2010Prop29
280
     1
102
RTVSPost2010PropOp29
 70
     1
102
RTVSPost2010Prop30
280
     1
102
RTVSPost2010PropOp30
 70
     1
102
RTVSPost2010Prop31
280
     0
102
RTVSPost2010PropOp31
 70
     1
102
RTVSPost2010Prop32
280
     0
102
RTVSPost2010PropOp32
 70
     1
102
RTVSPost2010Prop33
280
     0
102
RTVSPost2010PropOp33
 70
     1
102
RTVSPost2010Prop34
280
     0
102
RTVSPost2010PropOp34
 70
     1
102
RTVSPost2010Prop35
280
     0
102
RTVSPost2010PropOp35
 70
     1
102
RTVSPost2010Prop36
280
     0
102
RTVSPost2010PropOp36
 70
     1
102
RTVSPost2010Prop37
 90
       50
102
RTVSPost2010PropOp37
 70
     1
102
RTVSPost2010Prop38
140
0.0
102
RTVSPost2010PropOp38
 70
     1
102
RTVSPost2010Prop39
140
1.0
102
RTVSPost2010PropOp39
 70
     1
102
RTVSPost2010Prop40
 90
        0
102
RTVSPost2010PropOp40
 70
     1
102
RTVSPost2010Prop41ColorIndex
 90
       18
102
RTVSPost2010Prop41ColorRGB
 90
        0
102
RTVSPost2010PropOp41
 70
     1
102
RTVSPost2010Prop42
 90
       50
102
RTVSPost2010PropOp42
 70
     1
102
RTVSPost2010Prop43
 90
        3
102
RTVSPost2010PropOp43
 70
     1
102
RTVSPost2010Prop44ColorIndex
 90
        5
102
RTVSPost2010Prop44ColorRGB
 90
      255
102
RTVSPost2010PropOp44
 70
     1
102
RTVSPost2010Prop45
280
     0
102
RTVSPost2010PropOp45
 70
     1
102
RTVSPost2010Prop46
 90
       50
102
RTVSPost2010PropOp46
 70
     1
102
RTVSPost2010Prop47
 90
       50
102
RTVSPost2010PropOp47
 70
     1
102
RTVSPost2010Prop48
 90
       50
102
RTVSPost2010PropOp48
 70
     1
102
RTVSPost2010Prop49
280
     0
102
RTVSPost2010PropOp49
 70
     1
102
RTVSPost2010Prop50
 90
       50
102
RTVSPost2010PropOp50
 70
     1
102
RTVSPost2010Prop51ColorIndex
 90
      256
102
RTVSPost2010Prop51ColorRGB
 90
-16777216
102
RTVSPost2010PropOp51
 70
     0
102
RTVSPost2010Prop52
140
1.0
102
RTVSPost2010PropOp52
 70
     0
102
RTVSPost2010Prop53
 90
        2
102
RTVSPost2010PropOp53
 70
     1
102
RTVSPost2010Prop54
  1
strokes_ogs.tif
102
RTVSPost2010PropOp54
 70
     1
102
RTVSPost2010Prop55
280
     0
102
RTVSPost2010PropOp55
 70
     1
102
RTVSPost2010Prop56
140
1.0
102
RTVSPost2010PropOp56
 70
     1
102
RTVSPost2010Prop57
140
1.0
102
RTVSPost2010PropOp57
 70
     1
  0
XRECORD
  5
17A07
102
{ACAD_REACTORS
330
17A06
102
}
330
17A06
100
AcDbXrecord
280
     1
102
RTVSPost2010Prop28
280
     0
102
RTVSPost2010PropOp28
 70
     1
102
RTVSPost2010Prop29
280
     1
102
RTVSPost2010PropOp29
 70
     1
102
RTVSPost2010Prop30
280
     1
102
RTVSPost2010PropOp30
 70
     1
102
RTVSPost2010Prop31
280
     0
102
RTVSPost2010PropOp31
 70
     1
102
RTVSPost2010Prop32
280
     0
102
RTVSPost2010PropOp32
 70
     1
102
RTVSPost2010Prop33
280
     0
102
RTVSPost2010PropOp33
 70
     1
102
RTVSPost2010Prop34
280
     0
102
RTVSPost2010PropOp34
 70
     1
102
RTVSPost2010Prop35
280
     0
102
RTVSPost2010PropOp35
 70
     1
102
RTVSPost2010Prop36
280
     0
102
RTVSPost2010PropOp36
 70
     1
102
RTVSPost2010Prop37
 90
       50
102
RTVSPost2010PropOp37
 70
     1
102
RTVSPost2010Prop38
140
0.0
102
RTVSPost2010PropOp38
 70
     1
102
RTVSPost2010Prop39
140
1.0
102
RTVSPost2010PropOp39
 70
     1
102
RTVSPost2010Prop40
 90
        0
102
RTVSPost2010PropOp40
 70
     1
102
RTVSPost2010Prop41ColorIndex
 90
       18
102
RTVSPost2010Prop41ColorRGB
 90
        0
102
RTVSPost2010PropOp41
 70
     1
102
RTVSPost2010Prop42
 90
       50
102
RTVSPost2010PropOp42
 70
     1
102
RTVSPost2010Prop43
 90
        3
102
RTVSPost2010PropOp43
 70
     1
102
RTVSPost2010Prop44ColorIndex
 90
        5
102
RTVSPost2010Prop44ColorRGB
 90
      255
102
RTVSPost2010PropOp44
 70
     1
102
RTVSPost2010Prop45
280
     0
102
RTVSPost2010PropOp45
 70
     1
102
RTVSPost2010Prop46
 90
       50
102
RTVSPost2010PropOp46
 70
     1
102
RTVSPost2010Prop47
 90
       50
102
RTVSPost2010PropOp47
 70
     1
102
RTVSPost2010Prop48
 90
       50
102
RTVSPost2010PropOp48
 70
     1
102
RTVSPost2010Prop49
280
     0
102
RTVSPost2010PropOp49
 70
     1
102
RTVSPost2010Prop50
 90
       50
102
RTVSPost2010PropOp50
 70
     1
102
RTVSPost2010Prop51ColorIndex
 90
      256
102
RTVSPost2010Prop51ColorRGB
 90
-16777216
102
RTVSPost2010PropOp51
 70
     0
102
RTVSPost2010Prop52
140
1.0
102
RTVSPost2010PropOp52
 70
     0
102
RTVSPost2010Prop53
 90
        2
102
RTVSPost2010PropOp53
 70
     1
102
RTVSPost2010Prop54
  1
strokes_ogs.tif
102
RTVSPost2010PropOp54
 70
     1
102
RTVSPost2010Prop55
280
     0
102
RTVSPost2010PropOp55
 70
     1
102
RTVSPost2010Prop56
140
1.0
102
RTVSPost2010PropOp56
 70
     1
102
RTVSPost2010Prop57
140
1.0
102
RTVSPost2010PropOp57
 70
     1
  0
XRECORD
  5
17A1F
102
{ACAD_REACTORS
330
17A1E
102
}
330
17A1E
100
AcDbXrecord
280
     1
102
RTVSPost2010Prop28
280
     0
102
RTVSPost2010PropOp28
 70
     1
102
RTVSPost2010Prop29
280
     1
102
RTVSPost2010PropOp29
 70
     1
102
RTVSPost2010Prop30
280
     1
102
RTVSPost2010PropOp30
 70
     1
102
RTVSPost2010Prop31
280
     0
102
RTVSPost2010PropOp31
 70
     1
102
RTVSPost2010Prop32
280
     0
102
RTVSPost2010PropOp32
 70
     1
102
RTVSPost2010Prop33
280
     0
102
RTVSPost2010PropOp33
 70
     1
102
RTVSPost2010Prop34
280
     0
102
RTVSPost2010PropOp34
 70
     1
102
RTVSPost2010Prop35
280
     0
102
RTVSPost2010PropOp35
 70
     1
102
RTVSPost2010Prop36
280
     0
102
RTVSPost2010PropOp36
 70
     1
102
RTVSPost2010Prop37
 90
       50
102
RTVSPost2010PropOp37
 70
     1
102
RTVSPost2010Prop38
140
0.0
102
RTVSPost2010PropOp38
 70
     1
102
RTVSPost2010Prop39
140
1.0
102
RTVSPost2010PropOp39
 70
     1
102
RTVSPost2010Prop40
 90
        0
102
RTVSPost2010PropOp40
 70
     1
102
RTVSPost2010Prop41ColorIndex
 90
       18
102
RTVSPost2010Prop41ColorRGB
 90
        0
102
RTVSPost2010PropOp41
 70
     1
102
RTVSPost2010Prop42
 90
       50
102
RTVSPost2010PropOp42
 70
     1
102
RTVSPost2010Prop43
 90
        3
102
RTVSPost2010PropOp43
 70
     1
102
RTVSPost2010Prop44ColorIndex
 90
        5
102
RTVSPost2010Prop44ColorRGB
 90
      255
102
RTVSPost2010PropOp44
 70
     1
102
RTVSPost2010Prop45
280
     0
102
RTVSPost2010PropOp45
 70
     1
102
RTVSPost2010Prop46
 90
       50
102
RTVSPost2010PropOp46
 70
     1
102
RTVSPost2010Prop47
 90
       50
102
RTVSPost2010PropOp47
 70
     1
102
RTVSPost2010Prop48
 90
       50
102
RTVSPost2010PropOp48
 70
     1
102
RTVSPost2010Prop49
280
     0
102
RTVSPost2010PropOp49
 70
     1
102
RTVSPost2010Prop50
 90
       50
102
RTVSPost2010PropOp50
 70
     1
102
RTVSPost2010Prop51ColorIndex
 90
      256
102
RTVSPost2010Prop51ColorRGB
 90
-16777216
102
RTVSPost2010PropOp51
 70
     0
102
RTVSPost2010Prop52
140
1.0
102
RTVSPost2010PropOp52
 70
     0
102
RTVSPost2010Prop53
 90
        2
102
RTVSPost2010PropOp53
 70
     1
102
RTVSPost2010Prop54
  1
strokes_ogs.tif
102
RTVSPost2010PropOp54
 70
     1
102
RTVSPost2010Prop55
280
     0
102
RTVSPost2010PropOp55
 70
     1
102
RTVSPost2010Prop56
140
1.0
102
RTVSPost2010PropOp56
 70
     1
102
RTVSPost2010Prop57
140
1.0
102
RTVSPost2010PropOp57
 70
     1
  0
ENDSEC
  0
EOF
