  0
SECTION
  2
HEADER
  9
$ACADVER
  1
AC1024
  9
$ACADMAINTVER
 70
   226
  9
$DWGCODEPAGE
  3
ANSI_932
  9
$LASTSAVEDBY
  1
E2358A
  9
$INSBASE
 10
0.0
 20
0.0
 30
0.0
  9
$EXTMIN
 10
5.497147304351869
 20
5.537109870390395
 30
-0.0000000000000023
  9
$EXTMAX
 10
94.5028843669022
 20
126.405029688502
 30
0.0000000000000132
  9
$LIMMIN
 10
0.0
 20
0.0
  9
$LIMMAX
 10
297.0
 20
210.0
  9
$ORTHOMODE
 70
     0
  9
$REGENMODE
 70
     1
  9
$FILLMODE
 70
     1
  9
$QTEXTMODE
 70
     0
  9
$MIRRTEXT
 70
     1
  9
$LTSCALE
 40
1.0
  9
$ATTMODE
 70
     1
  9
$TEXTSIZE
 40
3.149999999999999
  9
$TRACEWID
 40
0.05
  9
$TEXTSTYLE
  7
STANDARD
  9
$CLAYER
  8
0
  9
$CELTYPE
  6
ByLayer
  9
$CECOLOR
 62
   256
  9
$CELTSCALE
 40
1.0
  9
$DISPSILH
 70
     0
  9
$DIMSCALE
 40
1.0
  9
$DIMASZ
 40
3.0
  9
$DIMEXO
 40
1.0
  9
$DIMDLI
 40
7.0
  9
$DIMRND
 40
0.0
  9
$DIMDLE
 40
0.0
  9
$DIMEXE
 40
2.0
  9
$DIMTP
 40
0.0
  9
$DIMTM
 40
0.0
  9
$DIMTXT
 40
3.149999999999999
  9
$DIMCEN
 40
0.0
  9
$DIMTSZ
 40
0.0
  9
$DIMTOL
 70
     0
  9
$DIMLIM
 70
     0
  9
$DIMTIH
 70
     0
  9
$DIMTOH
 70
     0
  9
$DIMSE1
 70
     0
  9
$DIMSE2
 70
     0
  9
$DIMTAD
 70
     1
  9
$DIMZIN
 70
     0
  9
$DIMBLK
  1

  9
$DIMASO
 70
     1
  9
$DIMSHO
 70
     1
  9
$DIMPOST
  1

  9
$DIMAPOST
  1

  9
$DIMALT
 70
     0
  9
$DIMALTD
 70
     2
  9
$DIMALTF
 40
25.4
  9
$DIMLFAC
 40
1.0
  9
$DIMTOFL
 70
     1
  9
$DIMTVP
 40
0.0
  9
$DIMTIX
 70
     0
  9
$DIMSOXD
 70
     0
  9
$DIMSAH
 70
     0
  9
$DIMBLK1
  1

  9
$DIMBLK2
  1

  9
$DIMSTYLE
  2
Standard
  9
$DIMCLRD
 70
     4
  9
$DIMCLRE
 70
     4
  9
$DIMCLRT
 70
     4
  9
$DIMTFAC
 40
0.711111
  9
$DIMGAP
 40
0.0
  9
$DIMJUST
 70
     0
  9
$DIMSD1
 70
     0
  9
$DIMSD2
 70
     0
  9
$DIMTOLJ
 70
     1
  9
$DIMTZIN
 70
     0
  9
$DIMALTZ
 70
     0
  9
$DIMALTTZ
 70
     0
  9
$DIMUPT
 70
     0
  9
$DIMDEC
 70
     6
  9
$DIMTDEC
 70
     6
  9
$DIMALTU
 70
     2
  9
$DIMALTTD
 70
     2
  9
$DIMTXSTY
  7
STANDARD
  9
$DIMAUNIT
 70
     0
  9
$DIMADEC
 70
     2
  9
$DIMALTRND
 40
0.0
  9
$DIMAZIN
 70
     0
  9
$DIMDSEP
 70
    46
  9
$DIMATFIT
 70
     3
  9
$DIMFRAC
 70
     0
  9
$DIMLDRBLK
  1

  9
$DIMLUNIT
 70
     2
  9
$DIMLWD
 70
    -2
  9
$DIMLWE
 70
    -2
  9
$DIMTMOVE
 70
     2
  9
$DIMFXL
 40
1.0
  9
$DIMFXLON
 70
     0
  9
$DIMJOGANG
 40
0.7853981633974483
  9
$DIMTFILL
 70
     0
  9
$DIMTFILLCLR
 70
     0
  9
$DIMARCSYM
 70
     0
  9
$DIMLTYPE
  6

  9
$DIMLTEX1
  6

  9
$DIMLTEX2
  6

  9
$DIMTXTDIRECTION
 70
     0
  9
$LUNITS
 70
     2
  9
$LUPREC
 70
     6
  9
$SKETCHINC
 40
0.1
  9
$FILLETRAD
 40
0.0
  9
$AUNITS
 70
     0
  9
$AUPREC
 70
     2
  9
$MENU
  1
ACAD
  9
$ELEVATION
 40
0.0
  9
$PELEVATION
 40
0.0
  9
$THICKNESS
 40
0.0
  9
$LIMCHECK
 70
     0
  9
$CHAMFERA
 40
0.0
  9
$CHAMFERB
 40
0.0
  9
$CHAMFERC
 40
0.0
  9
$CHAMFERD
 40
0.0
  9
$SKPOLY
 70
     0
  9
$TDCREATE
 40
2451277.438020833
  9
$TDUCREATE
 40
2451277.063021875
  9
$TDUPDATE
 40
2459775.736180556
  9
$TDUUPDATE
 40
2459775.361180556
  9
$TDINDWG
 40
0.0552866782
  9
$TDUSRTIMER
 40
0.0552866782
  9
$USRTIMER
 70
     1
  9
$ANGBASE
 50
0.0
  9
$ANGDIR
 70
     0
  9
$PDMODE
 70
     0
  9
$PDSIZE
 40
0.0
  9
$PLINEWID
 40
0.0
  9
$SPLFRAME
 70
     0
  9
$SPLINETYPE
 70
     6
  9
$SPLINESEGS
 70
     8
  9
$HANDSEED
  5
10DC1
  9
$SURFTAB1
 70
     6
  9
$SURFTAB2
 70
     6
  9
$SURFTYPE
 70
     6
  9
$SURFU
 70
     6
  9
$SURFV
 70
     6
  9
$UCSBASE
  2

  9
$UCSNAME
  2

  9
$UCSORG
 10
0.0
 20
0.0
 30
0.0
  9
$UCSXDIR
 10
1.0
 20
0.0
 30
0.0
  9
$UCSYDIR
 10
0.0
 20
1.0
 30
0.0
  9
$UCSORTHOREF
  2

  9
$UCSORTHOVIEW
 70
     0
  9
$UCSORGTOP
 10
0.0
 20
0.0
 30
0.0
  9
$UCSORGBOTTOM
 10
0.0
 20
0.0
 30
0.0
  9
$UCSORGLEFT
 10
0.0
 20
0.0
 30
0.0
  9
$UCSORGRIGHT
 10
0.0
 20
0.0
 30
0.0
  9
$UCSORGFRONT
 10
0.0
 20
0.0
 30
0.0
  9
$UCSORGBACK
 10
0.0
 20
0.0
 30
0.0
  9
$PUCSBASE
  2

  9
$PUCSNAME
  2

  9
$PUCSORG
 10
0.0
 20
0.0
 30
0.0
  9
$PUCSXDIR
 10
1.0
 20
0.0
 30
0.0
  9
$PUCSYDIR
 10
0.0
 20
1.0
 30
0.0
  9
$PUCSORTHOREF
  2

  9
$PUCSORTHOVIEW
 70
     0
  9
$PUCSORGTOP
 10
0.0
 20
0.0
 30
0.0
  9
$PUCSORGBOTTOM
 10
0.0
 20
0.0
 30
0.0
  9
$PUCSORGLEFT
 10
0.0
 20
0.0
 30
0.0
  9
$PUCSORGRIGHT
 10
0.0
 20
0.0
 30
0.0
  9
$PUCSORGFRONT
 10
0.0
 20
0.0
 30
0.0
  9
$PUCSORGBACK
 10
0.0
 20
0.0
 30
0.0
  9
$USERI1
 70
     0
  9
$USERI2
 70
     0
  9
$USERI3
 70
     0
  9
$USERI4
 70
     0
  9
$USERI5
 70
     0
  9
$USERR1
 40
0.0
  9
$USERR2
 40
0.0
  9
$USERR3
 40
0.0
  9
$USERR4
 40
0.0
  9
$USERR5
 40
0.0
  9
$WORLDVIEW
 70
     1
  9
$SHADEDGE
 70
     3
  9
$SHADEDIF
 70
    70
  9
$TILEMODE
 70
     1
  9
$MAXACTVP
 70
    16
  9
$PINSBASE
 10
0.0
 20
0.0
 30
0.0
  9
$PLIMCHECK
 70
     0
  9
$PEXTMIN
 10
0.0
 20
0.0
 30
0.0
  9
$PEXTMAX
 10
0.0
 20
0.0
 30
0.0
  9
$PLIMMIN
 10
0.0
 20
0.0
  9
$PLIMMAX
 10
12.0
 20
9.0
  9
$UNITMODE
 70
     0
  9
$VISRETAIN
 70
     0
  9
$PLINEGEN
 70
     0
  9
$PSLTSCALE
 70
     1
  9
$TREEDEPTH
 70
  3020
  9
$CMLSTYLE
  2
Standard
  9
$CMLJUST
 70
     0
  9
$CMLSCALE
 40
1.0
  9
$PROXYGRAPHICS
 70
     1
  9
$MEASUREMENT
 70
     0
  9
$CELWEIGHT
370
    -1
  9
$ENDCAPS
280
     0
  9
$JOINSTYLE
280
     0
  9
$LWDISPLAY
290
     0
  9
$INSUNITS
 70
     0
  9
$HYPERLINKBASE
  1

  9
$STYLESHEET
  1

  9
$XEDIT
290
     1
  9
$CEPSNTYPE
380
     0
  9
$PSTYLEMODE
290
     1
  9
$FINGERPRINTGUID
  2
{0791BF39-4863-11D7-B40E-00E000040FE5}
  9
$VERSIONGUID
  2
{4789AE17-850C-BA42-B601-47825D13D210}
  9
$EXTNAMES
290
     1
  9
$PSVPSCALE
 40
0.0
  9
$OLESTARTUP
290
     0
  9
$SORTENTS
280
   127
  9
$INDEXCTL
280
     0
  9
$HIDETEXT
280
     0
  9
$XCLIPFRAME
280
     2
  9
$HALOGAP
280
     0
  9
$OBSCOLOR
 70
   257
  9
$OBSLTYPE
280
     0
  9
$INTERSECTIONDISPLAY
280
     0
  9
$INTERSECTIONCOLOR
 70
   257
  9
$DIMASSOC
280
     1
  9
$PROJECTNAME
  1

  9
$CAMERADISPLAY
290
     0
  9
$LENSLENGTH
 40
50.0
  9
$CAMERAHEIGHT
 40
0.0
  9
$STEPSPERSEC
 40
2.0
  9
$STEPSIZE
 40
6.0
  9
$3DDWFPREC
 40
2.0
  9
$PSOLWIDTH
 40
0.25
  9
$PSOLHEIGHT
 40
4.0
  9
$LOFTANG1
 40
1.570796326794896
  9
$LOFTANG2
 40
1.570796326794896
  9
$LOFTMAG1
 40
0.0
  9
$LOFTMAG2
 40
0.0
  9
$LOFTPARAM
 70
     7
  9
$LOFTNORMALS
280
     1
  9
$LATITUDE
 40
37.795
  9
$LONGITUDE
 40
-122.394
  9
$NORTHDIRECTION
 40
0.0
  9
$TIMEZONE
 70
 -8000
  9
$LIGHTGLYPHDISPLAY
280
     1
  9
$TILEMODELIGHTSYNCH
280
     1
  9
$CMATERIAL
347
10C55
  9
$SOLIDHIST
280
     0
  9
$SHOWHIST
280
     1
  9
$DWFFRAME
280
     2
  9
$DGNFRAME
280
     0
  9
$REALWORLDSCALE
290
     1
  9
$INTERFERECOLOR
 62
     1
  9
$INTERFEREOBJVS
345
10C77
  9
$INTERFEREVPVS
346
10C74
  9
$CSHADOW
280
     0
  9
$SHADOWPLANELOCATION
 40
0.0
  0
ENDSEC
  0
SECTION
  2
CLASSES
  0
CLASS
  1
ACDBDICTIONARYWDFLT
  2
AcDbDictionaryWithDefault
  3
ObjectDBX Classes
 90
        0
 91
        1
280
     0
281
     0
  0
CLASS
  1
MATERIAL
  2
AcDbMaterial
  3
ObjectDBX Classes
 90
     1153
 91
        3
280
     0
281
     0
  0
CLASS
  1
VISUALSTYLE
  2
AcDbVisualStyle
  3
ObjectDBX Classes
 90
     4095
 91
       24
280
     0
281
     0
  0
CLASS
  1
TABLESTYLE
  2
AcDbTableStyle
  3
ObjectDBX Classes
 90
     4095
 91
        1
280
     0
281
     0
  0
CLASS
  1
SCALE
  2
AcDbScale
  3
ObjectDBX Classes
 90
     1153
 91
        1
280
     0
281
     0
  0
CLASS
  1
MLEADERSTYLE
  2
AcDbMLeaderStyle
  3
ACDB_MLEADERSTYLE_CLASS
 90
     4095
 91
        1
280
     0
281
     0
  0
CLASS
  1
ACDBSECTIONVIEWSTYLE
  2
AcDbSectionViewStyle
  3
ObjectDBX Classes
 90
     1025
 91
        1
280
     0
281
     0
  0
CLASS
  1
ACDBDETAILVIEWSTYLE
  2
AcDbDetailViewStyle
  3
ObjectDBX Classes
 90
     1025
 91
        1
280
     0
281
     0
  0
CLASS
  1
DICTIONARYVAR
  2
AcDbDictionaryVar
  3
ObjectDBX Classes
 90
        0
 91
       27
280
     0
281
     0
  0
CLASS
  1
CELLSTYLEMAP
  2
AcDbCellStyleMap
  3
ObjectDBX Classes
 90
     1152
 91
        1
280
     0
281
     0
  0
ENDSEC
  0
SECTION
  2
TABLES
  0
TABLE
  2
VPORT
  5
DE6E
330
0
100
AcDbSymbolTable
 70
     1
  0
VPORT
  5
10C52
330
DE6E
100
AcDbSymbolTableRecord
100
AcDbViewportTableRecord
  2
*Active
 70
     0
 10
0.0
 20
0.0
 11
1.0
 21
1.0
 12
50.00001583562705
 22
65.97106977944623
 13
0.0
 23
0.0
 14
1.0
 24
1.0
 15
5.0
 25
5.0
 16
0.0
 26
0.0
 36
1.0
 17
0.0
 27
0.0
 37
0.0
 40
121.7523192314149
 41
2.277167277167277
 42
50.0
 43
0.0
 44
0.0
 50
0.0
 51
0.0
 71
     0
 72
   100
 73
     1
 74
     1
 75
     0
 76
     0
 77
     0
 78
     0
281
     0
 65
     1
110
0.0
120
0.0
130
0.0
111
1.0
121
0.0
131
0.0
112
0.0
122
1.0
132
0.0
 79
     0
146
0.0
348
10C73
 60
     3
 61
     5
292
     1
282
     1
141
0.0
142
0.0
 63
   250
421
  3355443
1001
ACAD_NAV_VCDISPLAY
1070
     3
  0
ENDTAB
  0
TABLE
  2
LTYPE
  5
DE6B
330
0
100
AcDbSymbolTable
 70
     2
  0
LTYPE
  5
DE79
330
DE6B
100
AcDbSymbolTableRecord
100
AcDbLinetypeTableRecord
  2
ByBlock
 70
     0
  3

 72
    65
 73
     0
 40
0.0
  0
LTYPE
  5
DE7A
330
DE6B
100
AcDbSymbolTableRecord
100
AcDbLinetypeTableRecord
  2
ByLayer
 70
     0
  3

 72
    65
 73
     0
 40
0.0
  0
LTYPE
  5
DE7B
330
DE6B
100
AcDbSymbolTableRecord
100
AcDbLinetypeTableRecord
  2
CONTINUOUS
 70
     0
  3
Solid line
 72
    65
 73
     0
 40
0.0
  0
ENDTAB
  0
TABLE
  2
LAYER
  5
DE68
102
{ACAD_XDICTIONARY
360
10C9D
102
}
330
0
100
AcDbSymbolTable
 70
     1
  0
LAYER
  5
DE76
102
{ACAD_XDICTIONARY
360
10D72
102
}
330
DE68
100
AcDbSymbolTableRecord
100
AcDbLayerTableRecord
  2
0
 70
     0
 62
     7
  6
CONTINUOUS
370
    -3
390
DE75
347
10C65
  0
ENDTAB
  0
TABLE
  2
STYLE
  5
DE69
330
0
100
AcDbSymbolTable
 70
     1
  0
STYLE
  5
DE77
330
DE69
100
AcDbSymbolTableRecord
100
AcDbTextStyleTableRecord
  2
STANDARD
 70
     0
 40
0.0
 41
1.0
 50
0.0
 71
     0
 42
3.149999999999999
  3
simplex.shx
  4
bigfont.shx
  0
ENDTAB
  0
TABLE
  2
VIEW
  5
DE6C
330
0
100
AcDbSymbolTable
 70
     0
  0
ENDTAB
  0
TABLE
  2
UCS
  5
DE6D
330
0
100
AcDbSymbolTable
 70
     0
  0
ENDTAB
  0
TABLE
  2
APPID
  5
DE6F
330
0
100
AcDbSymbolTable
 70
     6
  0
APPID
  5
DE78
330
DE6F
100
AcDbSymbolTableRecord
100
AcDbRegAppTableRecord
  2
ACAD
 70
     0
  0
APPID
  5
10C97
330
DE6F
100
AcDbSymbolTableRecord
100
AcDbRegAppTableRecord
  2
ACAD_EXEMPT_FROM_CAD_STANDARDS
 70
     0
  0
APPID
  5
10C99
330
DE6F
100
AcDbSymbolTableRecord
100
AcDbRegAppTableRecord
  2
ACAD_PSEXT
 70
     0
  0
APPID
  5
10C9A
330
DE6F
100
AcDbSymbolTableRecord
100
AcDbRegAppTableRecord
  2
ACAD_DSTYLE_DIMJAG
 70
     0
  0
APPID
  5
10C9B
330
DE6F
100
AcDbSymbolTableRecord
100
AcDbRegAppTableRecord
  2
ACAD_DSTYLE_DIMTALN
 70
     0
  0
APPID
  5
10C9C
330
DE6F
100
AcDbSymbolTableRecord
100
AcDbRegAppTableRecord
  2
ACAD_NAV_VCDISPLAY
 70
     0
  0
ENDTAB
  0
TABLE
  2
DIMSTYLE
  5
DE70
330
0
100
AcDbSymbolTable
 70
     1
100
AcDbDimStyleTable
 71
     1
340
DE9A
  0
DIMSTYLE
105
DE9A
330
DE70
100
AcDbSymbolTableRecord
100
AcDbDimStyleTableRecord
  2
Standard
 70
     0
340
DE77
  0
ENDTAB
  0
TABLE
  2
BLOCK_RECORD
  5
DE67
330
0
100
AcDbSymbolTable
 70
     5
  0
BLOCK_RECORD
  5
DE84
102
{ACAD_XDICTIONARY
360
EB6F
102
}
330
DE67
100
AcDbSymbolTableRecord
100
AcDbBlockTableRecord
  2
*Model_Space
340
DE87
 70
     0
280
     1
281
     0
  0
BLOCK_RECORD
  5
10D6D
330
DE67
100
AcDbSymbolTableRecord
100
AcDbBlockTableRecord
  2
*Paper_Space
340
10D6E
 70
     0
280
     1
281
     0
  0
ENDTAB
  0
ENDSEC
  0
SECTION
  2
BLOCKS
  0
BLOCK
  5
DE95
330
DE84
100
AcDbEntity
  8
0
100
AcDbBlockBegin
  2
*Model_Space
 70
     0
 10
0.0
 20
0.0
 30
0.0
  3
*Model_Space
  1

  0
ENDBLK
  5
DE96
330
DE84
100
AcDbEntity
  8
0
100
AcDbBlockEnd
  0
BLOCK
  5
10D6F
330
10D6D
100
AcDbEntity
 67
     1
  8
0
100
AcDbBlockBegin
  2
*Paper_Space
 70
     0
 10
0.0
 20
0.0
 30
0.0
  3
*Paper_Space
  1

  0
ENDBLK
  5
10D70
330
10D6D
100
AcDbEntity
 67
     1
  8
0
100
AcDbBlockEnd
  0
ENDSEC
  0
SECTION
  2
ENTITIES
  0
TEXT
  5
8A64
330
DE84
100
AcDbEntity
  8
0
100
AcDbText
 10
15.0
 20
15.0
 30
0.0
 40
3.149999999999999
  1
耐圧防爆型
100
AcDbText
  0
LINE
  5
1035D
330
DE84
100
AcDbEntity
  8
0
100
AcDbLine
 10
38.49999999999994
 20
74.40000000000002
 30
0.0
 11
39.49999999999994
 21
74.40000000000002
 31
0.0
  0
LINE
  5
1035E
330
DE84
100
AcDbEntity
  8
0
100
AcDbLine
 10
38.49999999999994
 20
87.90000000000002
 30
0.0
 11
39.49999999999994
 21
87.90000000000002
 31
0.0
  0
LINE
  5
1035F
330
DE84
100
AcDbEntity
  8
0
100
AcDbLine
 10
38.49999999999994
 20
82.40000000000001
 30
0.0
 11
39.49999999999994
 21
82.40000000000001
 31
0.0
  0
LINE
  5
10362
330
DE84
100
AcDbEntity
  8
0
100
AcDbLine
 10
38.49999999999994
 20
95.90000000000001
 30
0.0
 11
39.49999999999994
 21
95.90000000000001
 31
0.0
  0
LINE
  5
10366
330
DE84
100
AcDbEntity
  8
0
100
AcDbLine
 10
34.99999999999995
 20
25.0
 30
0.0
 11
65.00000000000006
 21
25.0
 31
0.0
  0
CIRCLE
  5
10367
330
DE84
100
AcDbEntity
  8
0
100
AcDbCircle
 10
49.99999999999994
 20
48.5
 30
0.0
 40
19.65
  0
ARC
  5
10368
330
DE84
100
AcDbEntity
  8
0
100
AcDbCircle
 10
37.27207793864221
 20
35.7720779386421
 30
0.0
 40
2.3
100
AcDbArc
 50
315.0000000000046
 51
135.0000000000046
  0
ARC
  5
10369
330
DE84
100
AcDbEntity
  8
0
100
AcDbCircle
 10
37.2720779386421
 20
61.22792206135783
 30
0.0
 40
2.3
100
AcDbArc
 50
224.9999999999954
 51
44.99999999999539
  0
ARC
  5
1036A
330
DE84
100
AcDbEntity
  8
0
100
AcDbCircle
 10
37.27207793864221
 20
35.7720779386421
 30
0.0
 40
1.65
100
AcDbArc
 50
315.0000000000046
 51
135.0000000000046
  0
ARC
  5
1036B
330
DE84
100
AcDbEntity
  8
0
100
AcDbCircle
 10
37.2720779386421
 20
61.22792206135783
 30
0.0
 40
1.65
100
AcDbArc
 50
224.9999999999954
 51
44.99999999999539
  0
ARC
  5
1036D
330
DE84
100
AcDbEntity
  8
0
100
AcDbCircle
 10
35.40000000000004
 20
74.40000000000002
 30
0.0
 40
2.5
100
AcDbArc
 50
270.0
 51
0.0
  0
CIRCLE
  5
1036E
330
DE84
100
AcDbEntity
  8
0
100
AcDbCircle
 10
34.97296999999998
 20
73.62703000000003
 30
0.0
 40
1.25
  0
CIRCLE
  5
1036F
330
DE84
100
AcDbEntity
  8
0
100
AcDbCircle
 10
25.42703
 20
73.62703999999995
 30
0.0
 40
1.25
  0
ARC
  5
10370
330
DE84
100
AcDbEntity
  8
0
100
AcDbCircle
 10
30.19999999999999
 20
78.40000000000002
 30
0.0
 40
6.4
100
AcDbArc
 50
235.4752810195613
 51
304.5246825149986
  0
ARC
  5
10371
330
DE84
100
AcDbEntity
  8
0
100
AcDbCircle
 10
17.19999999999999
 20
78.40000000000002
 30
0.0
 40
6.4
100
AcDbArc
 50
235.4752810195613
 51
304.5246825149986
  0
ARC
  5
10372
330
DE84
100
AcDbEntity
  8
0
100
AcDbCircle
 10
10.19999999999996
 20
72.90000000000002
 30
0.0
 40
1.0
100
AcDbArc
 50
180.0
 51
270.0
  0
CIRCLE
  5
10373
330
DE84
100
AcDbEntity
  8
0
100
AcDbCircle
 10
12.42703
 20
73.62703999999995
 30
0.0
 40
1.25
  0
CIRCLE
  5
10374
330
DE84
100
AcDbEntity
  8
0
100
AcDbCircle
 10
21.97296999999998
 20
73.62703000000003
 30
0.0
 40
1.25
  0
LINE
  5
10375
330
DE84
100
AcDbEntity
  8
0
100
AcDbLine
 10
5.499999999999971
 20
125.4
 30
0.0
 11
5.499999999999971
 21
71.77500000000001
 31
0.0
  0
LINE
  5
10376
330
DE84
100
AcDbEntity
  8
0
100
AcDbLine
 10
32.018051323061
 20
46.06288658861944
 30
0.0
 11
30.55474113544864
 21
45.67079380557243
 31
0.0
  0
LINE
  5
10377
330
DE84
100
AcDbEntity
  8
0
100
AcDbLine
 10
10.49999999999997
 20
50.50000000000001
 30
0.0
 11
10.49999999999997
 21
41.4
 31
0.0
  0
ARC
  5
10378
330
DE84
100
AcDbEntity
  8
0
100
AcDbCircle
 10
32.61333512679681
 20
43.84125718815454
 30
0.0
 40
2.3
100
AcDbArc
 50
284.9999999999944
 51
104.9999999999944
  0
LINE
  5
10379
330
DE84
100
AcDbEntity
  8
0
100
AcDbLine
 10
5.499999999999971
 20
71.77500000000001
 30
0.0
 11
5.499999999999971
 21
41.4
 31
0.0
  0
LINE
  5
1037B
330
DE84
100
AcDbEntity
  8
0
100
AcDbLine
 10
5.499999999999971
 20
41.4
 30
0.0
 11
7.049999999999982
 21
41.4
 31
0.0
  0
ARC
  5
1037C
330
DE84
100
AcDbEntity
  8
0
100
AcDbCircle
 10
7.999999999999971
 20
43.4
 30
0.0
 40
0.95
100
AcDbArc
 50
0.0
 51
180.0
  0
LINE
  5
1037D
330
DE84
100
AcDbEntity
  8
0
100
AcDbLine
 10
8.94999999999996
 20
41.4
 30
0.0
 11
10.49999999999997
 21
41.4
 31
0.0
  0
LINE
  5
1037E
330
DE84
100
AcDbEntity
  8
0
100
AcDbLine
 10
7.049999999999982
 20
43.4
 30
0.0
 11
7.049999999999982
 21
41.4
 31
0.0
  0
LINE
  5
10380
330
DE84
100
AcDbEntity
  8
0
100
AcDbLine
 10
8.94999999999996
 20
43.4
 30
0.0
 11
8.94999999999996
 21
41.4
 31
0.0
  0
LINE
  5
10381
330
DE84
100
AcDbEntity
  8
0
100
AcDbLine
 10
32.1862837023777
 20
45.43503480153158
 30
0.0
 11
30.65953878502552
 21
45.02594473387881
 31
0.0
  0
ARC
  5
10382
330
DE84
100
AcDbEntity
  8
0
100
AcDbCircle
 10
32.61333512679681
 20
43.84125718815454
 30
0.0
 40
1.65
100
AcDbArc
 50
284.9999999999944
 51
104.9999999999944
  0
CIRCLE
  5
10383
330
DE84
100
AcDbEntity
  8
0
100
AcDbCircle
 10
32.61333512679681
 20
43.84125718815454
 30
0.0
 40
1.074999999999999
  0
LINE
  5
10384
330
DE84
100
AcDbEntity
  8
0
100
AcDbLine
 10
33.04038655121605
 20
42.24747957477775
 30
0.0
 11
31.51364163386387
 21
41.83838950712488
 31
0.0
  0
LINE
  5
10385
330
DE84
100
AcDbEntity
  8
0
100
AcDbLine
 10
38.89842353537125
 20
34.14573234191303
 30
0.0
 11
37.82720613080579
 21
33.07451493734766
 31
0.0
  0
LINE
  5
10386
330
DE84
100
AcDbEntity
  8
0
100
AcDbLine
 10
38.4388041275999
 20
34.60535174968442
 30
0.0
 11
37.32114927790059
 21
33.48769689998504
 31
0.0
  0
LINE
  5
10387
330
DE84
100
AcDbEntity
  8
0
100
AcDbLine
 10
36.1053517496843
 20
36.93880412759991
 30
0.0
 11
34.987696899985
 21
35.82114927790063
 31
0.0
  0
CIRCLE
  5
10388
330
DE84
100
AcDbEntity
  8
0
100
AcDbCircle
 10
37.27207793864221
 20
35.7720779386421
 30
0.0
 40
1.074999999999999
  0
LINE
  5
10389
330
DE84
100
AcDbEntity
  8
0
100
AcDbLine
 10
35.64573234191306
 20
37.39842353537115
 30
0.0
 11
34.57451493734772
 21
36.32720613080574
 31
0.0
  0
ARC
  5
1038A
330
DE84
100
AcDbEntity
  8
0
100
AcDbCircle
 10
34.99999999999995
 20
26.0
 30
0.0
 40
1.0
100
AcDbArc
 50
180.0
 51
270.0
  0
LINE
  5
1038B
330
DE84
100
AcDbEntity
  8
0
100
AcDbLine
 10
33.99999999999995
 20
37.0928750335591
 30
0.0
 11
33.99999999999995
 21
26.0
 31
0.0
  0
LINE
  5
1038C
330
DE84
100
AcDbEntity
  8
0
100
AcDbLine
 10
33.20861893053262
 20
41.61962778768975
 30
0.0
 11
31.74530874292026
 21
41.22753500464279
 31
0.0
  0
LINE
  5
10396
330
DE84
100
AcDbEntity
  8
0
100
AcDbLine
 10
10.19999999999996
 20
71.90000000000002
 30
0.0
 11
35.40000000000004
 21
71.90000000000002
 31
0.0
  0
LINE
  5
103A0
330
DE84
100
AcDbEntity
  8
0
100
AcDbLine
 10
5.599999999999994
 20
50.50000000000001
 30
0.0
 11
30.45204614288235
 21
50.50000000000001
 31
0.0
  0
LINE
  5
103A1
330
DE84
100
AcDbEntity
  8
0
100
AcDbLine
 10
5.599999999999994
 20
55.50000000000001
 30
0.0
 11
31.63910405236169
 21
55.50000000000001
 31
0.0
  0
LINE
  5
103A8
330
DE84
100
AcDbEntity
  8
0
100
AcDbLine
 10
13.99999999999994
 20
55.04999999999999
 30
0.0
 11
13.99999999999994
 21
50.95
 31
0.0
  0
LINE
  5
103A9
330
DE84
100
AcDbEntity
  8
0
100
AcDbLine
 10
15.19999999999999
 20
55.04999999999999
 30
0.0
 11
15.19999999999999
 21
50.95
 31
0.0
  0
CIRCLE
  5
103AA
330
DE84
100
AcDbEntity
  8
0
100
AcDbCircle
 10
7.999999999999971
 20
52.99999999999998
 30
0.0
 40
0.65
  0
LINE
  5
103AB
330
DE84
100
AcDbEntity
  8
0
100
AcDbLine
 10
10.49999999999997
 20
71.90000000000002
 30
0.0
 11
10.49999999999997
 21
55.50000000000001
 31
0.0
  0
LINE
  5
103F1
330
DE84
100
AcDbEntity
  8
0
100
AcDbLine
 10
36.10535174968442
 20
60.06119587240009
 30
0.0
 11
34.987696899985
 21
61.1788507220994
 31
0.0
  0
CIRCLE
  5
103F2
330
DE84
100
AcDbEntity
  8
0
100
AcDbCircle
 10
37.2720779386421
 20
61.22792206135783
 30
0.0
 40
1.074999999999999
  0
LINE
  5
103F3
330
DE84
100
AcDbEntity
  8
0
100
AcDbLine
 10
33.20861893053251
 20
55.38037221231018
 30
0.0
 11
31.74530874292015
 21
55.77246499535714
 31
0.0
  0
LINE
  5
103F4
330
DE84
100
AcDbEntity
  8
0
100
AcDbLine
 10
33.04038655121582
 20
54.75252042522235
 30
0.0
 11
31.51364163386376
 21
55.16161049287522
 31
0.0
  0
LINE
  5
103F5
330
DE84
100
AcDbEntity
  8
0
100
AcDbLine
 10
35.64573234191306
 20
59.60157646462882
 30
0.0
 11
34.57451493734772
 21
60.6727938691942
 31
0.0
  0
LINE
  5
103F6
330
DE84
100
AcDbEntity
  8
0
100
AcDbLine
 10
32.1862837023777
 20
51.56496519846841
 30
0.0
 11
30.65953878502552
 21
51.97405526612119
 31
0.0
  0
LINE
  5
103F7
330
DE84
100
AcDbEntity
  8
0
100
AcDbLine
 10
32.01805132306089
 20
50.93711341138051
 30
0.0
 11
30.55474113544864
 21
51.32920619442739
 31
0.0
  0
ARC
  5
103F8
330
DE84
100
AcDbEntity
  8
0
100
AcDbCircle
 10
32.6133351267967
 20
53.15874281184527
 30
0.0
 40
1.65
100
AcDbArc
 50
255.0000000000056
 51
75.00000000000555
  0
ARC
  5
103F9
330
DE84
100
AcDbEntity
  8
0
100
AcDbCircle
 10
32.6133351267967
 20
53.15874281184527
 30
0.0
 40
2.3
100
AcDbArc
 50
255.0000000000056
 51
75.00000000000555
  0
CIRCLE
  5
103FA
330
DE84
100
AcDbEntity
  8
0
100
AcDbCircle
 10
32.6133351267967
 20
53.15874281184527
 30
0.0
 40
1.074999999999999
  0
LINE
  5
103FB
330
DE84
100
AcDbEntity
  8
0
100
AcDbLine
 10
38.89842353537114
 20
62.8542676580869
 30
0.0
 11
37.82720613080568
 21
63.92548506265232
 31
0.0
  0
LINE
  5
103FC
330
DE84
100
AcDbEntity
  8
0
100
AcDbLine
 10
38.4388041275999
 20
62.39464825031565
 30
0.0
 11
37.32114927790059
 21
63.51230310001504
 31
0.0
  0
ARC
  5
1047B
330
DE84
100
AcDbEntity
  8
0
100
AcDbCircle
 10
17.19999999999999
 20
91.90000000000003
 30
0.0
 40
6.4
100
AcDbArc
 50
55.47531384320638
 51
124.5246825149985
  0
ARC
  5
10480
330
DE84
100
AcDbEntity
  8
0
100
AcDbCircle
 10
17.19999999999999
 20
91.90000000000003
 30
0.0
 40
6.4
100
AcDbArc
 50
235.4752810195613
 51
304.5246825149986
  0
LWPOLYLINE
  5
10481
330
DE84
100
AcDbEntity
  8
0
100
AcDbPolyline
 90
        8
 70
     1
 43
0.0
 10
13.94999999999999
 20
80.15000000000002
 10
18.55000000000001
 20
80.15000000000013
 42
0.4142135623730951
 10
18.74999999999994
 20
80.35000000000012
 10
18.74999999999994
 20
82.45000000000002
 42
0.4142135623730895
 10
18.55000000000001
 20
82.65000000000002
 10
13.94999999999999
 20
82.65000000000013
 42
0.4142135623730951
 10
13.74999999999994
 20
82.45000000000011
 10
13.74999999999994
 20
80.35000000000003
 42
0.4142135623730951
  0
ARC
  5
10482
330
DE84
100
AcDbEntity
  8
0
100
AcDbCircle
 10
17.19999999999999
 20
78.40000000000002
 30
0.0
 40
6.4
100
AcDbArc
 50
55.47531384320638
 51
124.5246825149985
  0
LWPOLYLINE
  5
10483
330
DE84
100
AcDbEntity
  8
0
100
AcDbPolyline
 90
        4
 70
     1
 43
0.0
 10
15.59999999999996
 20
82.65000000000002
 10
18.80000000000001
 20
82.65000000000002
 10
18.80000000000001
 20
84.15000000000002
 10
15.59999999999996
 20
84.15000000000002
  0
ARC
  5
10484
330
DE84
100
AcDbEntity
  8
0
100
AcDbCircle
 10
16.59999999999996
 20
80.40000000000002
 30
0.0
 40
1.1
100
AcDbArc
 50
294.0795000000177
 51
346.8634000000388
  0
LINE
  5
10485
330
DE84
100
AcDbEntity
  8
0
100
AcDbLine
 10
15.43913000000003
 20
76.70000000000003
 30
0.0
 11
18.55000000000001
 21
76.70000000000003
 31
0.0
  0
LINE
  5
10486
330
DE84
100
AcDbEntity
  8
0
100
AcDbLine
 10
14.65000000000003
 20
75.10000000000004
 30
0.0
 11
18.55000000000001
 21
75.10000000000004
 31
0.0
  0
ARC
  5
10487
330
DE84
100
AcDbEntity
  8
0
100
AcDbCircle
 10
16.59999999999996
 20
80.40000000000002
 30
0.0
 40
6.4
100
AcDbArc
 50
240.099599999958
 51
299.9003000000206
  0
LINE
  5
10488
330
DE84
100
AcDbEntity
  8
0
100
AcDbLine
 10
10.19999999999996
 20
85.40000000000002
 30
0.0
 11
35.40000000000004
 21
85.40000000000002
 31
0.0
  0
LINE
  5
10489
330
DE84
100
AcDbEntity
  8
0
100
AcDbLine
 10
10.19999999999996
 20
84.90000000000001
 30
0.0
 11
35.40000000000004
 21
84.90000000000001
 31
0.0
  0
LINE
  5
1048A
330
DE84
100
AcDbEntity
  8
0
100
AcDbLine
 10
10.19999999999996
 20
98.40000000000003
 30
0.0
 11
35.40000000000004
 21
98.40000000000003
 31
0.0
  0
LINE
  5
1048C
330
DE84
100
AcDbEntity
  8
0
100
AcDbLine
 10
10.49999999999997
 20
107.4
 30
0.0
 11
10.49999999999997
 21
98.40000000000003
 31
0.0
  0
LINE
  5
1048D
330
DE84
100
AcDbEntity
  8
0
100
AcDbLine
 10
6.799999999999982
 20
93.80000000000002
 30
0.0
 11
8.780365747854006
 21
93.80000000000002
 31
0.0
  0
LINE
  5
1048E
330
DE84
100
AcDbEntity
  8
0
100
AcDbLine
 10
6.799999999999982
 20
90.00000000000001
 30
0.0
 11
8.780365747854006
 21
90.00000000000001
 31
0.0
  0
LINE
  5
1048F
330
DE84
100
AcDbEntity
  8
0
100
AcDbLine
 10
6.799999999999982
 20
80.30000000000002
 30
0.0
 11
8.780365747854006
 21
80.30000000000002
 31
0.0
  0
LINE
  5
10490
330
DE84
100
AcDbEntity
  8
0
100
AcDbLine
 10
6.799999999999982
 20
76.50000000000002
 30
0.0
 11
8.780365747854006
 21
76.50000000000002
 31
0.0
  0
LINE
  5
10491
330
DE84
100
AcDbEntity
  8
0
100
AcDbLine
 10
6.799999999999982
 20
93.80000000000002
 30
0.0
 11
6.799999999999982
 21
90.00000000000001
 31
0.0
  0
LINE
  5
10492
330
DE84
100
AcDbEntity
  8
0
100
AcDbLine
 10
6.799999999999982
 20
80.30000000000002
 30
0.0
 11
6.799999999999982
 21
76.50000000000002
 31
0.0
  0
ARC
  5
1049D
330
DE84
100
AcDbEntity
  8
0
100
AcDbCircle
 10
17.29359999999991
 20
78.84794000000003
 30
0.0
 40
0.6000000000000001
100
AcDbArc
 50
114.0796000000092
 51
151.4000000000265
  0
ARC
  5
1049E
330
DE84
100
AcDbEntity
  8
0
100
AcDbCircle
 10
16.59999999999996
 20
80.40000000000002
 30
0.0
 40
0.9
100
AcDbArc
 50
196.1275999999868
 51
206.3205999999987
  0
ARC
  5
1049F
330
DE84
100
AcDbEntity
  8
0
100
AcDbCircle
 10
16.59999999999996
 20
80.40000000000002
 30
0.0
 40
1.1
100
AcDbArc
 50
193.1364999999946
 51
195.9265999999735
  0
ARC
  5
104A0
330
DE84
100
AcDbEntity
  8
0
100
AcDbCircle
 10
14.96525999999988
 20
79.93350000000003
 30
0.0
 40
0.6000000000000001
100
AcDbArc
 50
338.6063000000295
 51
15.92661000004446
  0
ARC
  5
104A1
330
DE84
100
AcDbEntity
  8
0
100
AcDbCircle
 10
15.16587999999996
 20
79.69057000000005
 30
0.0
 40
0.7000000000000001
100
AcDbArc
 50
335.0030999999875
 51
26.32058999995166
  0
ARC
  5
104A2
330
DE84
100
AcDbEntity
  8
0
100
AcDbCircle
 10
16.97854999999998
 20
78.84542999999995
 30
0.0
 40
0.7000000000000001
100
AcDbArc
 50
103.6856000000049
 51
155.0030999999874
  0
ARC
  5
104A3
330
DE84
100
AcDbEntity
  8
0
100
AcDbCircle
 10
16.59999999999996
 20
80.40000000000002
 30
0.0
 40
0.9
100
AcDbArc
 50
283.6854999999971
 51
343.8724000000132
  0
CIRCLE
  5
104A8
330
DE84
100
AcDbEntity
  8
0
100
AcDbCircle
 10
12.42703422698452
 20
96.67297577300161
 30
0.0
 40
0.525
  0
ARC
  5
104A9
330
DE84
100
AcDbEntity
  8
0
100
AcDbCircle
 10
10.19999999999996
 20
97.40000000000001
 30
0.0
 40
1.0
100
AcDbArc
 50
90.0
 51
180.0
  0
CIRCLE
  5
104AA
330
DE84
100
AcDbEntity
  8
0
100
AcDbCircle
 10
7.999999999999971
 20
91.90000000000003
 30
0.0
 40
0.525
  0
CIRCLE
  5
104AB
330
DE84
100
AcDbEntity
  8
0
100
AcDbCircle
 10
12.42703172698765
 20
87.12703172698768
 30
0.0
 40
0.525
  0
LINE
  5
104AC
330
DE84
100
AcDbEntity
  8
0
100
AcDbLine
 10
10.49999999999997
 20
85.40000000000002
 30
0.0
 11
10.49999999999997
 21
84.90000000000001
 31
0.0
  0
ARC
  5
104AD
330
DE84
100
AcDbEntity
  8
0
100
AcDbCircle
 10
10.19999999999996
 20
86.40000000000002
 30
0.0
 40
1.0
100
AcDbArc
 50
180.0
 51
270.0
  0
CIRCLE
  5
104AE
330
DE84
100
AcDbEntity
  8
0
100
AcDbCircle
 10
12.42703422698452
 20
83.17297577300163
 30
0.0
 40
0.525
  0
ARC
  5
104AF
330
DE84
100
AcDbEntity
  8
0
100
AcDbCircle
 10
10.19999999999996
 20
83.90000000000002
 30
0.0
 40
1.0
100
AcDbArc
 50
90.0
 51
180.0
  0
ARC
  5
104B0
330
DE84
100
AcDbEntity
  8
0
100
AcDbCircle
 10
31.19999999999999
 20
91.90000000000003
 30
0.0
 40
22.5
100
AcDbArc
 50
167.8985079681645
 51
192.1014920318355
  0
LINE
  5
104B1
330
DE84
100
AcDbEntity
  8
0
100
AcDbLine
 10
9.19999999999996
 20
97.40000000000001
 30
0.0
 11
9.19999999999996
 21
86.40000000000002
 31
0.0
  0
ARC
  5
104B2
330
DE84
100
AcDbEntity
  8
0
100
AcDbCircle
 10
17.19999999999999
 20
91.90000000000003
 30
0.0
 40
6.4
100
AcDbArc
 50
145.4753174850028
 51
214.5245989381225
  0
CIRCLE
  5
104B4
330
DE84
100
AcDbEntity
  8
0
100
AcDbCircle
 10
12.42703
 20
87.12703999999995
 30
0.0
 40
0.9
  0
CIRCLE
  5
104B6
330
DE84
100
AcDbEntity
  8
0
100
AcDbCircle
 10
12.42703
 20
87.12703999999995
 30
0.0
 40
1.25
  0
CIRCLE
  5
104B7
330
DE84
100
AcDbEntity
  8
0
100
AcDbCircle
 10
12.42703
 20
83.17297000000001
 30
0.0
 40
1.25
  0
CIRCLE
  5
104B8
330
DE84
100
AcDbEntity
  8
0
100
AcDbCircle
 10
12.42703
 20
83.17297000000001
 30
0.0
 40
0.9
  0
CIRCLE
  5
104B9
330
DE84
100
AcDbEntity
  8
0
100
AcDbCircle
 10
12.42703
 20
96.67297000000001
 30
0.0
 40
1.25
  0
CIRCLE
  5
104BA
330
DE84
100
AcDbEntity
  8
0
100
AcDbCircle
 10
12.42703
 20
96.67297000000001
 30
0.0
 40
0.9
  0
LINE
  5
104BB
330
DE84
100
AcDbEntity
  8
0
100
AcDbLine
 10
14.65000000000003
 20
75.25263999999999
 30
0.0
 11
14.65000000000003
 21
75.10000000000004
 31
0.0
  0
ARC
  5
104BC
330
DE84
100
AcDbEntity
  8
0
100
AcDbCircle
 10
14.23361000000005
 20
75.32455000000003
 30
0.0
 40
0.3999992
100
AcDbArc
 50
158.606400000029
 51
331.4002000000066
  0
ARC
  5
104BD
330
DE84
100
AcDbEntity
  8
0
100
AcDbCircle
 10
14.23361000000005
 20
75.32455000000003
 30
0.0
 40
0.3
100
AcDbArc
 50
155.0032999999995
 51
335.0032999999995
  0
CIRCLE
  5
104BE
330
DE84
100
AcDbEntity
  8
0
100
AcDbCircle
 10
12.42703172698765
 20
73.62703172698768
 30
0.0
 40
0.525
  0
CIRCLE
  5
104BF
330
DE84
100
AcDbEntity
  8
0
100
AcDbCircle
 10
7.999999999999971
 20
78.40000000000002
 30
0.0
 40
0.525
  0
CIRCLE
  5
104C0
330
DE84
100
AcDbEntity
  8
0
100
AcDbCircle
 10
12.42703
 20
73.62703999999995
 30
0.0
 40
0.9
  0
ARC
  5
104C1
330
DE84
100
AcDbEntity
  8
0
100
AcDbCircle
 10
14.35678000000001
 20
76.49898000000006
 30
0.0
 40
1.899999
100
AcDbArc
 50
145.0000000000056
 51
240.099599999958
  0
ARC
  5
104C2
330
DE84
100
AcDbEntity
  8
0
100
AcDbCircle
 10
31.19999999999999
 20
78.40000000000002
 30
0.0
 40
22.5
100
AcDbArc
 50
167.8985079681645
 51
192.1014920318355
  0
LINE
  5
104C3
330
DE84
100
AcDbEntity
  8
0
100
AcDbLine
 10
9.19999999999996
 20
83.90000000000002
 30
0.0
 11
9.19999999999996
 21
72.90000000000002
 31
0.0
  0
ARC
  5
104C4
330
DE84
100
AcDbEntity
  8
0
100
AcDbCircle
 10
17.19999999999999
 20
78.40000000000002
 30
0.0
 40
6.4
100
AcDbArc
 50
145.4753174850028
 51
214.5245989381225
  0
LINE
  5
104C5
330
DE84
100
AcDbEntity
  8
0
100
AcDbLine
 10
12.80038999999993
 20
77.58878000000006
 30
0.0
 11
14.59377999999998
 21
80.15000000000002
 31
0.0
  0
LINE
  5
104C6
330
DE84
100
AcDbEntity
  8
0
100
AcDbLine
 10
13.96170999999998
 20
75.45131000000004
 30
0.0
 11
15.80031000000002
 21
79.39477000000001
 31
0.0
  0
LINE
  5
104C7
330
DE84
100
AcDbEntity
  8
0
100
AcDbLine
 10
15.52392000000003
 20
79.71465000000002
 30
0.0
 11
13.86116999999996
 21
75.47046000000001
 31
0.0
  0
LINE
  5
104C8
330
DE84
100
AcDbEntity
  8
0
100
AcDbLine
 10
16.76681999999999
 20
79.13515
 30
0.0
 11
14.58481
 21
75.13307000000008
 31
0.0
  0
LINE
  5
104C9
330
DE84
100
AcDbEntity
  8
0
100
AcDbLine
 10
14.50551999999999
 20
75.19776999999997
 30
0.0
 11
16.34412000000003
 21
79.14121999999998
 31
0.0
  0
LINE
  5
104CB
330
DE84
100
AcDbEntity
  8
0
100
AcDbLine
 10
6.499999999999971
 20
126.4
 30
0.0
 11
9.499999999999971
 21
126.4
 31
0.0
  0
LINE
  5
104CE
330
DE84
100
AcDbEntity
  8
0
100
AcDbLine
 10
5.499999999999971
 20
125.4
 30
0.0
 11
6.499999999999971
 21
126.4
 31
0.0
  0
LINE
  5
104D0
330
DE84
100
AcDbEntity
  8
0
100
AcDbLine
 10
9.499999999999971
 20
126.4
 30
0.0
 11
10.49999999999997
 21
125.4
 31
0.0
  0
LINE
  5
104D1
330
DE84
100
AcDbEntity
  8
0
100
AcDbLine
 10
8.94999999999996
 20
123.9
 30
0.0
 11
8.94999999999996
 21
122.9
 31
0.0
  0
LINE
  5
104D2
330
DE84
100
AcDbEntity
  8
0
100
AcDbLine
 10
7.049999999999982
 20
123.9
 30
0.0
 11
7.049999999999982
 21
122.9
 31
0.0
  0
ARC
  5
104D3
330
DE84
100
AcDbEntity
  8
0
100
AcDbCircle
 10
7.999999999999971
 20
123.9
 30
0.0
 40
0.95
100
AcDbArc
 50
0.0
 51
180.0
  0
ARC
  5
104F1
330
DE84
100
AcDbEntity
  8
0
100
AcDbCircle
 10
7.999999999999971
 20
122.9
 30
0.0
 40
0.95
100
AcDbArc
 50
180.0
 51
0.0
  0
LINE
  5
104F2
330
DE84
100
AcDbEntity
  8
0
100
AcDbLine
 10
10.49999999999997
 20
125.4
 30
0.0
 11
10.49999999999997
 21
112.4
 31
0.0
  0
ARC
  5
104F5
330
DE84
100
AcDbEntity
  8
0
100
AcDbCircle
 10
29.59999999999997
 20
80.40000000000002
 30
0.0
 40
1.1
100
AcDbArc
 50
193.1364999999946
 51
195.9265999999735
  0
ARC
  5
104F6
330
DE84
100
AcDbEntity
  8
0
100
AcDbCircle
 10
27.96525999999989
 20
79.93350000000003
 30
0.0
 40
0.6000000000000001
100
AcDbArc
 50
338.6063000000295
 51
15.92661000004446
  0
LWPOLYLINE
  5
104FA
330
DE84
100
AcDbEntity
  8
0
100
AcDbPolyline
 90
        8
 70
     1
 43
0.0
 10
26.94999999999999
 20
80.15000000000002
 10
31.55000000000001
 20
80.15000000000013
 42
0.4142135623730951
 10
31.74999999999994
 20
80.35000000000012
 10
31.74999999999994
 20
82.45000000000002
 42
0.4142135623730895
 10
31.55000000000001
 20
82.65000000000002
 10
26.94999999999999
 20
82.65000000000013
 42
0.4142135623730951
 10
26.74999999999994
 20
82.45000000000011
 10
26.74999999999994
 20
80.35000000000003
 42
0.4142135623730951
  0
ARC
  5
104FE
330
DE84
100
AcDbEntity
  8
0
100
AcDbCircle
 10
30.19999999999999
 20
91.90000000000003
 30
0.0
 40
6.4
100
AcDbArc
 50
235.4752810195613
 51
304.5246825149986
  0
ARC
  5
104FF
330
DE84
100
AcDbEntity
  8
0
100
AcDbCircle
 10
30.19999999999999
 20
78.40000000000002
 30
0.0
 40
6.4
100
AcDbArc
 50
55.47531384320638
 51
124.5246825149985
  0
ARC
  5
10501
330
DE84
100
AcDbEntity
  8
0
100
AcDbCircle
 10
30.19999999999999
 20
91.90000000000003
 30
0.0
 40
6.4
100
AcDbArc
 50
55.47531384320638
 51
124.5246825149985
  0
LINE
  5
10502
330
DE84
100
AcDbEntity
  8
0
100
AcDbLine
 10
27.65000000000004
 20
75.10000000000004
 30
0.0
 11
31.55000000000001
 21
75.10000000000004
 31
0.0
  0
LINE
  5
10503
330
DE84
100
AcDbEntity
  8
0
100
AcDbLine
 10
28.43913000000004
 20
76.70000000000003
 30
0.0
 11
31.55000000000001
 21
76.70000000000003
 31
0.0
  0
ARC
  5
10504
330
DE84
100
AcDbEntity
  8
0
100
AcDbCircle
 10
29.59999999999997
 20
80.40000000000002
 30
0.0
 40
6.4
100
AcDbArc
 50
240.099599999958
 51
299.9003000000206
  0
LINE
  5
10505
330
DE84
100
AcDbEntity
  8
0
100
AcDbLine
 10
26.96170999999998
 20
75.45131000000004
 30
0.0
 11
28.80031000000002
 21
79.39477000000001
 31
0.0
  0
LINE
  5
10506
330
DE84
100
AcDbEntity
  8
0
100
AcDbLine
 10
29.76682
 20
79.13515
 30
0.0
 11
27.58481000000001
 21
75.13307000000008
 31
0.0
  0
LINE
  5
10507
330
DE84
100
AcDbEntity
  8
0
100
AcDbLine
 10
27.50551999999999
 20
75.19776999999997
 30
0.0
 11
29.34412000000003
 21
79.14121999999998
 31
0.0
  0
CIRCLE
  5
10508
330
DE84
100
AcDbEntity
  8
0
100
AcDbCircle
 10
25.42703422698452
 20
96.67297577300161
 30
0.0
 40
0.525
  0
CIRCLE
  5
1050A
330
DE84
100
AcDbEntity
  8
0
100
AcDbCircle
 10
25.42703
 20
96.67297000000001
 30
0.0
 40
1.25
  0
CIRCLE
  5
1050B
330
DE84
100
AcDbEntity
  8
0
100
AcDbCircle
 10
25.42703
 20
96.67297000000001
 30
0.0
 40
0.9
  0
CIRCLE
  5
1050F
330
DE84
100
AcDbEntity
  8
0
100
AcDbCircle
 10
25.42703172698765
 20
87.12703172698768
 30
0.0
 40
0.525
  0
CIRCLE
  5
10510
330
DE84
100
AcDbEntity
  8
0
100
AcDbCircle
 10
25.42703422698452
 20
83.17297577300163
 30
0.0
 40
0.525
  0
CIRCLE
  5
10511
330
DE84
100
AcDbEntity
  8
0
100
AcDbCircle
 10
25.42703
 20
87.12703999999995
 30
0.0
 40
0.9
  0
CIRCLE
  5
10512
330
DE84
100
AcDbEntity
  8
0
100
AcDbCircle
 10
25.42703
 20
87.12703999999995
 30
0.0
 40
1.25
  0
CIRCLE
  5
10513
330
DE84
100
AcDbEntity
  8
0
100
AcDbCircle
 10
25.42703
 20
83.17297000000001
 30
0.0
 40
1.25
  0
CIRCLE
  5
10514
330
DE84
100
AcDbEntity
  8
0
100
AcDbCircle
 10
25.42703
 20
83.17297000000001
 30
0.0
 40
0.9
  0
ARC
  5
10515
330
DE84
100
AcDbEntity
  8
0
100
AcDbCircle
 10
30.19999999999999
 20
91.90000000000003
 30
0.0
 40
6.4
100
AcDbArc
 50
145.4753174850028
 51
214.5245989381225
  0
ARC
  5
10516
330
DE84
100
AcDbEntity
  8
0
100
AcDbCircle
 10
17.19999999999999
 20
91.90000000000003
 30
0.0
 40
6.4
100
AcDbArc
 50
325.4753174850029
 51
34.5246861567261
  0
LINE
  5
10519
330
DE84
100
AcDbEntity
  8
0
100
AcDbLine
 10
27.65000000000004
 20
75.25263999999999
 30
0.0
 11
27.65000000000004
 21
75.10000000000004
 31
0.0
  0
ARC
  5
1051A
330
DE84
100
AcDbEntity
  8
0
100
AcDbCircle
 10
27.23361000000006
 20
75.32455000000003
 30
0.0
 40
0.3999992
100
AcDbArc
 50
158.606400000029
 51
331.4002000000066
  0
ARC
  5
1051B
330
DE84
100
AcDbEntity
  8
0
100
AcDbCircle
 10
27.23361000000006
 20
75.32455000000003
 30
0.0
 40
0.3
100
AcDbArc
 50
155.0032999999995
 51
335.0032999999995
  0
CIRCLE
  5
1051C
330
DE84
100
AcDbEntity
  8
0
100
AcDbCircle
 10
25.42703172698765
 20
73.62703172698768
 30
0.0
 40
0.525
  0
CIRCLE
  5
1051D
330
DE84
100
AcDbEntity
  8
0
100
AcDbCircle
 10
25.42703
 20
73.62703999999995
 30
0.0
 40
0.9
  0
ARC
  5
1051E
330
DE84
100
AcDbEntity
  8
0
100
AcDbCircle
 10
27.35678000000002
 20
76.49898000000006
 30
0.0
 40
1.899999
100
AcDbArc
 50
145.0000000000056
 51
240.099599999958
  0
ARC
  5
1051F
330
DE84
100
AcDbEntity
  8
0
100
AcDbCircle
 10
30.19999999999999
 20
78.40000000000002
 30
0.0
 40
6.4
100
AcDbArc
 50
145.4753174850028
 51
214.5245989381225
  0
ARC
  5
10520
330
DE84
100
AcDbEntity
  8
0
100
AcDbCircle
 10
17.19999999999999
 20
78.40000000000002
 30
0.0
 40
6.4
100
AcDbArc
 50
325.4753174850029
 51
34.5246861567261
  0
LINE
  5
10521
330
DE84
100
AcDbEntity
  8
0
100
AcDbLine
 10
25.80038999999994
 20
77.58878000000006
 30
0.0
 11
27.59377999999998
 21
80.15000000000002
 31
0.0
  0
LINE
  5
10522
330
DE84
100
AcDbEntity
  8
0
100
AcDbLine
 10
28.52392000000003
 20
79.71465000000002
 30
0.0
 11
26.86116999999996
 21
75.47046000000001
 31
0.0
  0
CIRCLE
  5
10526
330
DE84
100
AcDbEntity
  8
0
100
AcDbCircle
 10
20.30000000000001
 20
80.90000000000001
 30
0.0
 40
1.4
  0
ARC
  5
10527
330
DE84
100
AcDbEntity
  8
0
100
AcDbCircle
 10
20.30000000000001
 20
80.90000000000001
 30
0.0
 40
1.899999
100
AcDbArc
 50
74.63968248079985
 51
144.6655407443169
  0
ARC
  5
1052A
330
DE84
100
AcDbEntity
  8
0
100
AcDbCircle
 10
18.84322000000003
 20
76.49898000000006
 30
0.0
 40
1.899999
100
AcDbArc
 50
299.9003000000206
 51
35.00002999995945
  0
LINE
  5
1052B
330
DE84
100
AcDbEntity
  8
0
100
AcDbLine
 10
18.55000000000001
 20
76.70000000000003
 30
0.0
 11
18.55000000000001
 21
75.10000000000004
 31
0.0
  0
LINE
  5
1052C
330
DE84
100
AcDbEntity
  8
0
100
AcDbLine
 10
18.60148999999995
 20
80.15674000000002
 30
0.0
 11
20.39960000000002
 21
77.58877000000005
 31
0.0
  0
ARC
  5
1052E
330
DE84
100
AcDbEntity
  8
0
100
AcDbCircle
 10
20.30000000000001
 20
80.90000000000001
 30
0.0
 40
1.899999
100
AcDbArc
 50
231.9300593361614
 51
32.6520788148308
  0
CIRCLE
  5
1052F
330
DE84
100
AcDbEntity
  8
0
100
AcDbCircle
 10
21.97296999999998
 20
73.62703000000003
 30
0.0
 40
0.9
  0
CIRCLE
  5
10530
330
DE84
100
AcDbEntity
  8
0
100
AcDbCircle
 10
21.97297577299815
 20
73.62703422698108
 30
0.0
 40
0.525
  0
CIRCLE
  5
10531
330
DE84
100
AcDbEntity
  8
0
100
AcDbCircle
 10
21.97296999999998
 20
87.12703000000002
 30
0.0
 40
0.9
  0
CIRCLE
  5
10532
330
DE84
100
AcDbEntity
  8
0
100
AcDbCircle
 10
21.97297577299815
 20
87.12703422698108
 30
0.0
 40
0.525
  0
CIRCLE
  5
10533
330
DE84
100
AcDbEntity
  8
0
100
AcDbCircle
 10
21.97296999999998
 20
87.12703000000002
 30
0.0
 40
1.25
  0
CIRCLE
  5
10534
330
DE84
100
AcDbEntity
  8
0
100
AcDbCircle
 10
21.97297327300606
 20
83.17297327300604
 30
0.0
 40
0.525
  0
CIRCLE
  5
10535
330
DE84
100
AcDbEntity
  8
0
100
AcDbCircle
 10
21.9729707730092
 20
83.17297077300922
 30
0.0
 40
1.25
  0
CIRCLE
  5
10536
330
DE84
100
AcDbEntity
  8
0
100
AcDbCircle
 10
21.9729707730092
 20
83.17297077300922
 30
0.0
 40
0.9
  0
CIRCLE
  5
10537
330
DE84
100
AcDbEntity
  8
0
100
AcDbCircle
 10
21.97297327300606
 20
96.67297327300603
 30
0.0
 40
0.525
  0
CIRCLE
  5
10538
330
DE84
100
AcDbEntity
  8
0
100
AcDbCircle
 10
21.9729707730092
 20
96.6729707730092
 30
0.0
 40
1.25
  0
CIRCLE
  5
10539
330
DE84
100
AcDbEntity
  8
0
100
AcDbCircle
 10
21.9729707730092
 20
96.6729707730092
 30
0.0
 40
0.9
  0
LINE
  5
1053A
330
DE84
100
AcDbEntity
  8
0
100
AcDbLine
 10
37.90000000000004
 20
95.90000000000001
 30
0.0
 11
38.49999999999994
 21
95.90000000000001
 31
0.0
  0
ARC
  5
1053B
330
DE84
100
AcDbEntity
  8
0
100
AcDbCircle
 10
35.40000000000004
 20
95.90000000000001
 30
0.0
 40
2.5
100
AcDbArc
 50
0.0
 51
90.0
  0
CIRCLE
  5
10540
330
DE84
100
AcDbEntity
  8
0
100
AcDbCircle
 10
34.97297077300919
 20
96.6729707730092
 30
0.0
 40
1.25
  0
CIRCLE
  5
10541
330
DE84
100
AcDbEntity
  8
0
100
AcDbCircle
 10
34.97297077300919
 20
96.6729707730092
 30
0.0
 40
0.9
  0
CIRCLE
  5
10542
330
DE84
100
AcDbEntity
  8
0
100
AcDbCircle
 10
34.97297327300606
 20
96.67297327300603
 30
0.0
 40
0.525
  0
LINE
  5
10543
330
DE84
100
AcDbEntity
  8
0
100
AcDbLine
 10
37.90000000000004
 20
87.90000000000002
 30
0.0
 11
38.49999999999994
 21
87.90000000000002
 31
0.0
  0
ARC
  5
10544
330
DE84
100
AcDbEntity
  8
0
100
AcDbCircle
 10
35.40000000000004
 20
87.90000000000002
 30
0.0
 40
2.5
100
AcDbArc
 50
270.0
 51
0.0
  0
LINE
  5
10545
330
DE84
100
AcDbEntity
  8
0
100
AcDbLine
 10
37.90000000000004
 20
82.40000000000001
 30
0.0
 11
38.49999999999994
 21
82.40000000000001
 31
0.0
  0
ARC
  5
10546
330
DE84
100
AcDbEntity
  8
0
100
AcDbCircle
 10
35.40000000000004
 20
82.40000000000001
 30
0.0
 40
2.5
100
AcDbArc
 50
0.0
 51
90.0
  0
CIRCLE
  5
10547
330
DE84
100
AcDbEntity
  8
0
100
AcDbCircle
 10
33.30000000000001
 20
80.90000000000001
 30
0.0
 40
1.4
  0
ARC
  5
10548
330
DE84
100
AcDbEntity
  8
0
100
AcDbCircle
 10
33.30000000000001
 20
80.90000000000001
 30
0.0
 40
1.899999
100
AcDbArc
 50
74.63968248079985
 51
144.6655407443169
  0
CIRCLE
  5
10549
330
DE84
100
AcDbEntity
  8
0
100
AcDbCircle
 10
34.97296999999998
 20
87.12703000000002
 30
0.0
 40
1.25
  0
CIRCLE
  5
1054A
330
DE84
100
AcDbEntity
  8
0
100
AcDbCircle
 10
34.97296999999998
 20
87.12703000000002
 30
0.0
 40
0.9
  0
CIRCLE
  5
1054B
330
DE84
100
AcDbEntity
  8
0
100
AcDbCircle
 10
34.97297077300919
 20
83.17297077300922
 30
0.0
 40
1.25
  0
CIRCLE
  5
1054C
330
DE84
100
AcDbEntity
  8
0
100
AcDbCircle
 10
34.97297077300919
 20
83.17297077300922
 30
0.0
 40
0.9
  0
CIRCLE
  5
1054D
330
DE84
100
AcDbEntity
  8
0
100
AcDbCircle
 10
34.97297577299816
 20
87.12703422698108
 30
0.0
 40
0.525
  0
CIRCLE
  5
1054E
330
DE84
100
AcDbEntity
  8
0
100
AcDbCircle
 10
34.97297327300606
 20
83.17297327300604
 30
0.0
 40
0.525
  0
LINE
  5
1054F
330
DE84
100
AcDbEntity
  8
0
100
AcDbLine
 10
37.90000000000004
 20
95.90000000000001
 30
0.0
 11
37.90000000000004
 21
87.90000000000002
 31
0.0
  0
ARC
  5
10550
330
DE84
100
AcDbEntity
  8
0
100
AcDbCircle
 10
30.19999999999999
 20
91.90000000000003
 30
0.0
 40
6.4
100
AcDbArc
 50
325.4753174850029
 51
34.5246861567261
  0
LINE
  5
10551
330
DE84
100
AcDbEntity
  8
0
100
AcDbLine
 10
38.49999999999994
 20
95.90000000000001
 30
0.0
 11
38.49999999999994
 21
87.90000000000002
 31
0.0
  0
ARC
  5
10558
330
DE84
100
AcDbEntity
  8
0
100
AcDbCircle
 10
30.29359999999992
 20
78.84794000000003
 30
0.0
 40
0.6000000000000001
100
AcDbArc
 50
114.0796000000092
 51
151.4000000000265
  0
ARC
  5
10559
330
DE84
100
AcDbEntity
  8
0
100
AcDbCircle
 10
29.59999999999997
 20
80.40000000000002
 30
0.0
 40
0.9
100
AcDbArc
 50
196.1275999999868
 51
206.3205999999987
  0
ARC
  5
1055A
330
DE84
100
AcDbEntity
  8
0
100
AcDbCircle
 10
28.16587999999996
 20
79.69057000000005
 30
0.0
 40
0.7000000000000001
100
AcDbArc
 50
335.0030999999875
 51
26.32058999995166
  0
ARC
  5
1055B
330
DE84
100
AcDbEntity
  8
0
100
AcDbCircle
 10
29.97854999999999
 20
78.84542999999995
 30
0.0
 40
0.7000000000000001
100
AcDbArc
 50
103.6856000000049
 51
155.0030999999874
  0
ARC
  5
1055C
330
DE84
100
AcDbEntity
  8
0
100
AcDbCircle
 10
29.59999999999997
 20
80.40000000000002
 30
0.0
 40
1.1
100
AcDbArc
 50
294.0795000000177
 51
346.8634000000388
  0
ARC
  5
1055D
330
DE84
100
AcDbEntity
  8
0
100
AcDbCircle
 10
29.59999999999997
 20
80.40000000000002
 30
0.0
 40
0.9
100
AcDbArc
 50
283.6854999999971
 51
343.8724000000132
  0
LWPOLYLINE
  5
1055E
330
DE84
100
AcDbEntity
  8
0
100
AcDbPolyline
 90
        4
 70
     1
 43
0.0
 10
28.59999999999997
 20
82.65000000000002
 10
31.80000000000001
 20
82.65000000000002
 10
31.80000000000001
 20
84.15000000000002
 10
28.59999999999997
 20
84.15000000000002
  0
LINE
  5
10562
330
DE84
100
AcDbEntity
  8
0
100
AcDbLine
 10
37.90000000000004
 20
74.40000000000002
 30
0.0
 11
38.49999999999994
 21
74.40000000000002
 31
0.0
  0
ARC
  5
10563
330
DE84
100
AcDbEntity
  8
0
100
AcDbCircle
 10
31.84322000000003
 20
76.49898000000006
 30
0.0
 40
1.899999
100
AcDbArc
 50
299.9003000000206
 51
35.00002999995945
  0
LINE
  5
10564
330
DE84
100
AcDbEntity
  8
0
100
AcDbLine
 10
31.55000000000001
 20
76.70000000000003
 30
0.0
 11
31.55000000000001
 21
75.10000000000004
 31
0.0
  0
CIRCLE
  5
10565
330
DE84
100
AcDbEntity
  8
0
100
AcDbCircle
 10
34.97296999999998
 20
73.62703000000003
 30
0.0
 40
0.9
  0
CIRCLE
  5
10566
330
DE84
100
AcDbEntity
  8
0
100
AcDbCircle
 10
34.97297577299816
 20
73.62703422698108
 30
0.0
 40
0.525
  0
LINE
  5
10567
330
DE84
100
AcDbEntity
  8
0
100
AcDbLine
 10
37.90000000000004
 20
82.40000000000001
 30
0.0
 11
37.90000000000004
 21
74.40000000000002
 31
0.0
  0
ARC
  5
10568
330
DE84
100
AcDbEntity
  8
0
100
AcDbCircle
 10
33.30000000000001
 20
80.90000000000001
 30
0.0
 40
1.899999
100
AcDbArc
 50
231.9300593361614
 51
32.6520788148308
  0
ARC
  5
10569
330
DE84
100
AcDbEntity
  8
0
100
AcDbCircle
 10
30.19999999999999
 20
78.40000000000002
 30
0.0
 40
6.4
100
AcDbArc
 50
325.4753174850029
 51
34.5246861567261
  0
LINE
  5
1056A
330
DE84
100
AcDbEntity
  8
0
100
AcDbLine
 10
38.49999999999994
 20
82.40000000000001
 30
0.0
 11
38.49999999999994
 21
74.40000000000002
 31
0.0
  0
LINE
  5
1056B
330
DE84
100
AcDbEntity
  8
0
100
AcDbLine
 10
31.60148999999996
 20
80.15674000000002
 30
0.0
 11
33.39960000000002
 21
77.58877000000005
 31
0.0
  0
ARC
  5
105A0
330
DE84
100
AcDbEntity
  8
0
100
AcDbCircle
 10
89.80000000000002
 20
72.90000000000002
 30
0.0
 40
1.0
100
AcDbArc
 50
270.0
 51
0.0
  0
CIRCLE
  5
105A1
330
DE84
100
AcDbEntity
  8
0
100
AcDbCircle
 10
87.57296999999999
 20
73.62703000000003
 30
0.0
 40
1.25
  0
CIRCLE
  5
105A2
330
DE84
100
AcDbEntity
  8
0
100
AcDbCircle
 10
78.02703000000002
 20
73.62704000000007
 30
0.0
 40
1.25
  0
ARC
  5
105A3
330
DE84
100
AcDbEntity
  8
0
100
AcDbCircle
 10
82.80000000000001
 20
78.40000000000002
 30
0.0
 40
6.4
100
AcDbArc
 50
235.4752810195613
 51
304.5246825149986
  0
LINE
  5
105A4
330
DE84
100
AcDbEntity
  8
0
100
AcDbLine
 10
94.49999999999993
 20
125.4
 30
0.0
 11
94.49999999999993
 21
71.77500000000001
 31
0.0
  0
ARC
  5
105A5
330
DE84
100
AcDbEntity
  8
0
100
AcDbCircle
 10
69.80000000000001
 20
78.40000000000002
 30
0.0
 40
6.4
100
AcDbArc
 50
235.4752810195613
 51
304.5246825149986
  0
ARC
  5
105A6
330
DE84
100
AcDbEntity
  8
0
100
AcDbCircle
 10
64.59999999999997
 20
74.40000000000002
 30
0.0
 40
2.5
100
AcDbArc
 50
180.0
 51
270.0
  0
LINE
  5
105A7
330
DE84
100
AcDbEntity
  8
0
100
AcDbLine
 10
60.00000000000006
 20
73.90000000000002
 30
0.0
 11
60.00000000000006
 21
71.40000000000002
 31
0.0
  0
CIRCLE
  5
105A8
330
DE84
100
AcDbEntity
  8
0
100
AcDbCircle
 10
65.02703000000003
 20
73.62704000000007
 30
0.0
 40
1.25
  0
LINE
  5
105A9
330
DE84
100
AcDbEntity
  8
0
100
AcDbLine
 10
39.99999999999995
 20
73.90000000000002
 30
0.0
 11
39.99999999999995
 21
71.40000000000002
 31
0.0
  0
CIRCLE
  5
105AA
330
DE84
100
AcDbEntity
  8
0
100
AcDbCircle
 10
74.57297
 20
73.62703000000003
 30
0.0
 40
1.25
  0
LINE
  5
105B6
330
DE84
100
AcDbEntity
  8
0
100
AcDbLine
 10
89.80000000000002
 20
71.90000000000002
 30
0.0
 11
64.59999999999997
 21
71.90000000000002
 31
0.0
  0
LINE
  5
105C1
330
DE84
100
AcDbEntity
  8
0
100
AcDbLine
 10
68.36089594763831
 20
55.50000000000001
 30
0.0
 11
94.40000000000003
 21
55.50000000000001
 31
0.0
  0
LINE
  5
105C2
330
DE84
100
AcDbEntity
  8
0
100
AcDbLine
 10
69.54795385711765
 20
50.50000000000001
 30
0.0
 11
94.40000000000003
 21
50.50000000000001
 31
0.0
  0
LINE
  5
105C4
330
DE84
100
AcDbEntity
  8
0
100
AcDbLine
 10
67.98194867693911
 20
46.06288658861955
 30
0.0
 11
69.44525886455136
 21
45.67079380557261
 31
0.0
  0
ARC
  5
105C5
330
DE84
100
AcDbEntity
  8
0
100
AcDbCircle
 10
67.38666487320319
 20
43.84125718815477
 30
0.0
 40
2.3
100
AcDbArc
 50
75.00000000000555
 51
255.0000000000056
  0
ARC
  5
105C6
330
DE84
100
AcDbEntity
  8
0
100
AcDbCircle
 10
62.7279220613579
 20
35.77207793864227
 30
0.0
 40
1.65
100
AcDbArc
 50
44.99999999999539
 51
224.9999999999954
  0
ARC
  5
105C7
330
DE84
100
AcDbEntity
  8
0
100
AcDbCircle
 10
62.7279220613579
 20
35.77207793864227
 30
0.0
 40
2.3
100
AcDbArc
 50
44.99999999999539
 51
224.9999999999954
  0
LINE
  5
105C8
330
DE84
100
AcDbEntity
  8
0
100
AcDbLine
 10
47.56288658861961
 20
30.51805132306095
 30
0.0
 11
47.1707938055726
 21
29.05474113544861
 31
0.0
  0
LINE
  5
105C9
330
DE84
100
AcDbEntity
  8
0
100
AcDbLine
 10
46.93503480153156
 20
30.68628370237767
 30
0.0
 11
46.52594473387881
 21
29.15953878502552
 31
0.0
  0
CIRCLE
  5
105CA
330
DE84
100
AcDbEntity
  8
0
100
AcDbCircle
 10
45.34125718815488
 20
31.11333512679671
 30
0.0
 40
1.074999999999999
  0
ARC
  5
105CB
330
DE84
100
AcDbEntity
  8
0
100
AcDbCircle
 10
45.34125718815488
 20
31.11333512679671
 30
0.0
 40
1.65
100
AcDbArc
 50
345.0000000000056
 51
165.0000000000055
  0
LINE
  5
105CC
330
DE84
100
AcDbEntity
  8
0
100
AcDbLine
 10
43.74747957477774
 20
31.54038655121591
 30
0.0
 11
43.33838950712487
 21
30.0136416338638
 31
0.0
  0
LINE
  5
105CD
330
DE84
100
AcDbEntity
  8
0
100
AcDbLine
 10
43.11962778768981
 20
31.70861893053253
 30
0.0
 11
42.7275350046429
 21
30.24530874292015
 31
0.0
  0
ARC
  5
105CE
330
DE84
100
AcDbEntity
  8
0
100
AcDbCircle
 10
45.34125718815488
 20
31.11333512679671
 30
0.0
 40
2.3
100
AcDbArc
 50
345.0000000000056
 51
165.0000000000055
  0
LINE
  5
105CF
330
DE84
100
AcDbEntity
  8
0
100
AcDbLine
 10
56.88037221231031
 20
31.70861893053257
 30
0.0
 11
57.27246499535721
 21
30.24530874292023
 31
0.0
  0
LINE
  5
105D0
330
DE84
100
AcDbEntity
  8
0
100
AcDbLine
 10
52.43711341138061
 20
30.51805132306095
 30
0.0
 11
52.82920619442762
 21
29.05474113544861
 31
0.0
  0
LINE
  5
105D1
330
DE84
100
AcDbEntity
  8
0
100
AcDbLine
 10
53.06496519846843
 20
30.68628370237763
 30
0.0
 11
53.4740552661213
 21
29.15953878502546
 31
0.0
  0
CIRCLE
  5
105D2
330
DE84
100
AcDbEntity
  8
0
100
AcDbCircle
 10
54.65874281184546
 20
31.11333512679685
 30
0.0
 40
1.074999999999999
  0
ARC
  5
105D3
330
DE84
100
AcDbEntity
  8
0
100
AcDbCircle
 10
54.65874281184546
 20
31.11333512679685
 30
0.0
 40
1.65
100
AcDbArc
 50
14.99999999999445
 51
194.9999999999944
  0
ARC
  5
105D4
330
DE84
100
AcDbEntity
  8
0
100
AcDbCircle
 10
54.65874281184546
 20
31.11333512679685
 30
0.0
 40
2.3
100
AcDbArc
 50
14.99999999999445
 51
194.9999999999944
  0
LINE
  5
105D5
330
DE84
100
AcDbEntity
  8
0
100
AcDbLine
 10
56.25252042522226
 20
31.54038655121595
 30
0.0
 11
56.66161049287513
 21
30.01364163386384
 31
0.0
  0
LINE
  5
105D6
330
DE84
100
AcDbEntity
  8
0
100
AcDbLine
 10
67.8137162976223
 20
45.43503480153158
 30
0.0
 11
69.34046121497448
 21
45.02594473387881
 31
0.0
  0
LINE
  5
105D7
330
DE84
100
AcDbEntity
  8
0
100
AcDbLine
 10
66.95961344878418
 20
42.24747957477771
 30
0.0
 11
68.48635836613624
 21
41.83838950712484
 31
0.0
  0
ARC
  5
105D8
330
DE84
100
AcDbEntity
  8
0
100
AcDbCircle
 10
67.38666487320319
 20
43.84125718815477
 30
0.0
 40
1.65
100
AcDbArc
 50
75.00000000000555
 51
255.0000000000056
  0
CIRCLE
  5
105D9
330
DE84
100
AcDbEntity
  8
0
100
AcDbCircle
 10
67.38666487320319
 20
43.84125718815477
 30
0.0
 40
1.074999999999999
  0
LINE
  5
105DA
330
DE84
100
AcDbEntity
  8
0
100
AcDbLine
 10
66.00000000000005
 20
37.0928750335591
 30
0.0
 11
66.00000000000005
 21
26.0
 31
0.0
  0
LINE
  5
105DB
330
DE84
100
AcDbEntity
  8
0
100
AcDbLine
 10
61.5611958724001
 20
34.60535174968436
 30
0.0
 11
62.67885072209941
 21
33.487696899985
 31
0.0
  0
LINE
  5
105DC
330
DE84
100
AcDbEntity
  8
0
100
AcDbLine
 10
61.10157646462886
 20
34.14573234191312
 30
0.0
 11
62.17279386919432
 21
33.07451493734772
 31
0.0
  0
CIRCLE
  5
105DD
330
DE84
100
AcDbEntity
  8
0
100
AcDbCircle
 10
62.7279220613579
 20
35.77207793864227
 30
0.0
 40
1.074999999999999
  0
LINE
  5
105DE
330
DE84
100
AcDbEntity
  8
0
100
AcDbLine
 10
63.89464825031558
 20
36.93880412759995
 30
0.0
 11
65.01230310001488
 21
35.82114927790068
 31
0.0
  0
ARC
  5
105DF
330
DE84
100
AcDbEntity
  8
0
100
AcDbCircle
 10
64.99999999999994
 20
26.0
 30
0.0
 40
1.0
100
AcDbArc
 50
270.0
 51
0.0
  0
LINE
  5
105E0
330
DE84
100
AcDbEntity
  8
0
100
AcDbLine
 10
64.35426765808694
 20
37.39842353537125
 30
0.0
 11
65.42548506265228
 21
36.32720613080588
 31
0.0
  0
LINE
  5
105E1
330
DE84
100
AcDbEntity
  8
0
100
AcDbLine
 10
66.79138106946749
 20
41.61962778768985
 30
0.0
 11
68.25469125707986
 21
41.22753500464291
 31
0.0
  0
ARC
  5
105E6
330
DE84
100
AcDbEntity
  8
0
100
AcDbCircle
 10
62.72792206135779
 20
61.227922061358
 30
0.0
 40
2.3
100
AcDbArc
 50
135.0000000000046
 51
315.0000000000046
  0
LINE
  5
105E9
330
DE84
100
AcDbEntity
  8
0
100
AcDbLine
 10
41.99999999999994
 20
69.00000000000002
 30
0.0
 11
58.00000000000006
 21
69.00000000000002
 31
0.0
  0
LINE
  5
105EA
330
DE84
100
AcDbEntity
  8
0
100
AcDbLine
 10
42.49999999999994
 20
68.50000000000001
 30
0.0
 11
57.50000000000006
 21
68.50000000000001
 31
0.0
  0
LINE
  5
105EC
330
DE84
100
AcDbEntity
  8
0
100
AcDbLine
 10
47.56288658861939
 20
66.48194867693909
 30
0.0
 11
47.17079380557237
 21
67.9452588645514
 31
0.0
  0
LINE
  5
105ED
330
DE84
100
AcDbEntity
  8
0
100
AcDbLine
 10
46.93503480153156
 20
66.31371629762234
 30
0.0
 11
46.5259447338787
 21
67.84046121497453
 31
0.0
  0
ARC
  5
105EE
330
DE84
100
AcDbEntity
  8
0
100
AcDbCircle
 10
45.34125718815443
 20
65.88666487320317
 30
0.0
 40
1.65
100
AcDbArc
 50
194.9999999999944
 51
14.99999999999445
  0
CIRCLE
  5
105EF
330
DE84
100
AcDbEntity
  8
0
100
AcDbCircle
 10
45.34125718815443
 20
65.88666487320317
 30
0.0
 40
1.074999999999999
  0
LINE
  5
105F0
330
DE84
100
AcDbEntity
  8
0
100
AcDbLine
 10
41.99999999999994
 20
69.00000000000002
 30
0.0
 11
42.49999999999994
 21
68.50000000000001
 31
0.0
  0
LINE
  5
105F1
330
DE84
100
AcDbEntity
  8
0
100
AcDbLine
 10
41.99999999999994
 20
71.40000000000002
 30
0.0
 11
41.99999999999994
 21
69.00000000000002
 31
0.0
  0
LINE
  5
105F2
330
DE84
100
AcDbEntity
  8
0
100
AcDbLine
 10
43.11962778768969
 20
65.29138106946742
 30
0.0
 11
42.72753500464268
 21
66.75469125707969
 31
0.0
  0
LINE
  5
105F3
330
DE84
100
AcDbEntity
  8
0
100
AcDbLine
 10
42.49999999999994
 20
68.50000000000001
 30
0.0
 11
42.49999999999994
 21
66.66239246354955
 31
0.0
  0
LINE
  5
105F4
330
DE84
100
AcDbEntity
  8
0
100
AcDbLine
 10
43.74747957477763
 20
65.45961344878399
 30
0.0
 11
43.33838950712475
 21
66.98635836613611
 31
0.0
  0
ARC
  5
105F5
330
DE84
100
AcDbEntity
  8
0
100
AcDbCircle
 10
45.34125718815443
 20
65.88666487320317
 30
0.0
 40
2.3
100
AcDbArc
 50
194.9999999999944
 51
14.99999999999445
  0
LINE
  5
105F6
330
DE84
100
AcDbEntity
  8
0
100
AcDbLine
 10
58.00000000000006
 20
69.00000000000002
 30
0.0
 11
57.50000000000006
 21
68.50000000000001
 31
0.0
  0
LINE
  5
105F7
330
DE84
100
AcDbEntity
  8
0
100
AcDbLine
 10
58.00000000000006
 20
71.40000000000002
 30
0.0
 11
58.00000000000006
 21
69.00000000000002
 31
0.0
  0
LINE
  5
105F8
330
DE84
100
AcDbEntity
  8
0
100
AcDbLine
 10
56.88037221231019
 20
65.29138106946748
 30
0.0
 11
57.27246499535709
 21
66.7546912570799
 31
0.0
  0
LINE
  5
105F9
330
DE84
100
AcDbEntity
  8
0
100
AcDbLine
 10
57.50000000000006
 20
68.50000000000001
 30
0.0
 11
57.50000000000006
 21
66.66239246354955
 31
0.0
  0
LINE
  5
105FA
330
DE84
100
AcDbEntity
  8
0
100
AcDbLine
 10
52.43711341138049
 20
66.48194867693909
 30
0.0
 11
52.8292061944274
 21
67.9452588645514
 31
0.0
  0
LINE
  5
105FB
330
DE84
100
AcDbEntity
  8
0
100
AcDbLine
 10
53.06496519846843
 20
66.31371629762234
 30
0.0
 11
53.47405526612118
 21
67.84046121497453
 31
0.0
  0
CIRCLE
  5
105FC
330
DE84
100
AcDbEntity
  8
0
100
AcDbCircle
 10
54.65874281184534
 20
65.88666487320335
 30
0.0
 40
1.074999999999999
  0
ARC
  5
105FD
330
DE84
100
AcDbEntity
  8
0
100
AcDbCircle
 10
54.65874281184534
 20
65.88666487320335
 30
0.0
 40
1.65
100
AcDbArc
 50
165.0000000000055
 51
345.0000000000056
  0
ARC
  5
105FE
330
DE84
100
AcDbEntity
  8
0
100
AcDbCircle
 10
54.65874281184534
 20
65.88666487320335
 30
0.0
 40
2.3
100
AcDbArc
 50
165.0000000000055
 51
345.0000000000056
  0
LINE
  5
105FF
330
DE84
100
AcDbEntity
  8
0
100
AcDbLine
 10
56.25252042522237
 20
65.45961344878417
 30
0.0
 11
56.66161049287524
 21
66.98635836613632
 31
0.0
  0
LINE
  5
10602
330
DE84
100
AcDbEntity
  8
0
100
AcDbLine
 10
39.99999999999995
 20
71.40000000000002
 30
0.0
 11
60.00000000000006
 21
71.40000000000002
 31
0.0
  0
LINE
  5
10647
330
DE84
100
AcDbEntity
  8
0
100
AcDbLine
 10
66.95961344878395
 20
54.75252042522235
 30
0.0
 11
68.48635836613613
 21
55.16161049287522
 31
0.0
  0
LINE
  5
10648
330
DE84
100
AcDbEntity
  8
0
100
AcDbLine
 10
66.79138106946737
 20
55.38037221231029
 30
0.0
 11
68.25469125707974
 21
55.77246499535731
 31
0.0
  0
LINE
  5
10649
330
DE84
100
AcDbEntity
  8
0
100
AcDbLine
 10
67.8137162976223
 20
51.56496519846847
 30
0.0
 11
69.34046121497448
 21
51.97405526612126
 31
0.0
  0
LINE
  5
1064A
330
DE84
100
AcDbEntity
  8
0
100
AcDbLine
 10
67.981948676939
 20
50.93711341138059
 30
0.0
 11
69.44525886455136
 21
51.32920619442761
 31
0.0
  0
ARC
  5
1064B
330
DE84
100
AcDbEntity
  8
0
100
AcDbCircle
 10
67.38666487320319
 20
53.1587428118455
 30
0.0
 40
1.65
100
AcDbArc
 50
104.9999999999944
 51
284.9999999999944
  0
CIRCLE
  5
1064C
330
DE84
100
AcDbEntity
  8
0
100
AcDbCircle
 10
67.38666487320319
 20
53.1587428118455
 30
0.0
 40
1.074999999999999
  0
LINE
  5
1064D
330
DE84
100
AcDbEntity
  8
0
100
AcDbLine
 10
63.8946482503157
 20
60.06119587240009
 30
0.0
 11
65.012303100015
 21
61.1788507220994
 31
0.0
  0
CIRCLE
  5
1064E
330
DE84
100
AcDbEntity
  8
0
100
AcDbCircle
 10
62.72792206135779
 20
61.227922061358
 30
0.0
 40
1.074999999999999
  0
ARC
  5
1064F
330
DE84
100
AcDbEntity
  8
0
100
AcDbCircle
 10
62.72792206135779
 20
61.227922061358
 30
0.0
 40
1.65
100
AcDbArc
 50
135.0000000000046
 51
315.0000000000046
  0
ARC
  5
10650
330
DE84
100
AcDbEntity
  8
0
100
AcDbCircle
 10
67.38666487320319
 20
53.1587428118455
 30
0.0
 40
2.3
100
AcDbArc
 50
104.9999999999944
 51
284.9999999999944
  0
LINE
  5
10651
330
DE84
100
AcDbEntity
  8
0
100
AcDbLine
 10
64.35426765808694
 20
59.60157646462885
 30
0.0
 11
65.42548506265228
 21
60.67279386919437
 31
0.0
  0
LINE
  5
10652
330
DE84
100
AcDbEntity
  8
0
100
AcDbLine
 10
61.10157646462886
 20
62.85426765808698
 30
0.0
 11
62.17279386919409
 21
63.92548506265239
 31
0.0
  0
LINE
  5
10653
330
DE84
100
AcDbEntity
  8
0
100
AcDbLine
 10
61.56119587239999
 20
62.39464825031565
 30
0.0
 11
62.67885072209941
 21
63.51230310001504
 31
0.0
  0
LINE
  5
106DA
330
DE84
100
AcDbEntity
  8
0
100
AcDbLine
 10
89.49999999999993
 20
50.50000000000001
 30
0.0
 11
89.49999999999993
 21
41.4
 31
0.0
  0
LINE
  5
106DB
330
DE84
100
AcDbEntity
  8
0
100
AcDbLine
 10
94.49999999999993
 20
71.77500000000001
 30
0.0
 11
94.49999999999993
 21
41.4
 31
0.0
  0
LINE
  5
106DD
330
DE84
100
AcDbEntity
  8
0
100
AcDbLine
 10
92.94999999999999
 20
41.4
 30
0.0
 11
94.49999999999993
 21
41.4
 31
0.0
  0
ARC
  5
106DE
330
DE84
100
AcDbEntity
  8
0
100
AcDbCircle
 10
91.99999999999993
 20
43.4
 30
0.0
 40
0.95
100
AcDbArc
 50
0.0
 51
180.0
  0
LINE
  5
106DF
330
DE84
100
AcDbEntity
  8
0
100
AcDbLine
 10
89.49999999999993
 20
41.4
 30
0.0
 11
91.05000000000002
 21
41.4
 31
0.0
  0
LINE
  5
106E1
330
DE84
100
AcDbEntity
  8
0
100
AcDbLine
 10
91.05000000000002
 20
43.4
 30
0.0
 11
91.05000000000002
 21
41.4
 31
0.0
  0
LINE
  5
106E2
330
DE84
100
AcDbEntity
  8
0
100
AcDbLine
 10
92.94999999999999
 20
43.4
 30
0.0
 11
92.94999999999999
 21
41.4
 31
0.0
  0
CIRCLE
  5
106E6
330
DE84
100
AcDbEntity
  8
0
100
AcDbCircle
 10
91.99999999999993
 20
52.99999999999998
 30
0.0
 40
0.65
  0
LINE
  5
106E8
330
DE84
100
AcDbEntity
  8
0
100
AcDbLine
 10
84.80000000000002
 20
55.04999999999999
 30
0.0
 11
84.80000000000002
 21
50.95
 31
0.0
  0
LINE
  5
106E9
330
DE84
100
AcDbEntity
  8
0
100
AcDbLine
 10
86.00000000000006
 20
55.04999999999999
 30
0.0
 11
86.00000000000006
 21
50.95
 31
0.0
  0
CIRCLE
  5
106EA
330
DE84
100
AcDbEntity
  8
0
100
AcDbCircle
 10
87.49999999999994
 20
52.99999999999998
 30
0.0
 40
0.65
  0
LINE
  5
106EB
330
DE84
100
AcDbEntity
  8
0
100
AcDbLine
 10
89.49999999999993
 20
71.90000000000002
 30
0.0
 11
89.49999999999993
 21
55.50000000000001
 31
0.0
  0
ARC
  5
1071E
330
DE84
100
AcDbEntity
  8
0
100
AcDbCircle
 10
82.19999999999998
 20
80.40000000000002
 30
0.0
 40
0.9
100
AcDbArc
 50
283.6854999999971
 51
343.8724000000132
  0
ARC
  5
10721
330
DE84
100
AcDbEntity
  8
0
100
AcDbCircle
 10
82.80000000000001
 20
91.90000000000003
 30
0.0
 40
6.4
100
AcDbArc
 50
235.4752810195613
 51
304.5246825149986
  0
LWPOLYLINE
  5
10723
330
DE84
100
AcDbEntity
  8
0
100
AcDbPolyline
 90
        4
 70
     1
 43
0.0
 10
81.19999999999999
 20
82.65000000000002
 10
84.40000000000003
 20
82.65000000000002
 10
84.40000000000003
 20
84.15000000000002
 10
81.19999999999999
 20
84.15000000000002
  0
LWPOLYLINE
  5
10724
330
DE84
100
AcDbEntity
  8
0
100
AcDbPolyline
 90
        8
 70
     1
 43
0.0
 10
79.55000000000001
 20
80.15000000000002
 10
84.15000000000004
 20
80.15000000000013
 42
0.4142135623730951
 10
84.34999999999996
 20
80.35000000000012
 10
84.34999999999996
 20
82.45000000000002
 42
0.4142135623730895
 10
84.15000000000004
 20
82.65000000000002
 10
79.55000000000001
 20
82.65000000000013
 42
0.4142135623730951
 10
79.34999999999996
 20
82.45000000000011
 10
79.34999999999996
 20
80.35000000000003
 42
0.4142135623730951
  0
ARC
  5
10725
330
DE84
100
AcDbEntity
  8
0
100
AcDbCircle
 10
82.80000000000001
 20
78.40000000000002
 30
0.0
 40
6.4
100
AcDbArc
 50
55.47531384320638
 51
124.5246825149985
  0
ARC
  5
10726
330
DE84
100
AcDbEntity
  8
0
100
AcDbCircle
 10
82.89359999999993
 20
78.84794000000003
 30
0.0
 40
0.6000000000000001
100
AcDbArc
 50
114.0796000000092
 51
151.4000000000265
  0
ARC
  5
10729
330
DE84
100
AcDbEntity
  8
0
100
AcDbCircle
 10
82.80000000000001
 20
91.90000000000003
 30
0.0
 40
6.4
100
AcDbArc
 50
55.47531384320638
 51
124.5246825149985
  0
LINE
  5
1072B
330
DE84
100
AcDbEntity
  8
0
100
AcDbLine
 10
81.03913000000005
 20
76.70000000000003
 30
0.0
 11
84.15000000000004
 21
76.70000000000003
 31
0.0
  0
LINE
  5
1072C
330
DE84
100
AcDbEntity
  8
0
100
AcDbLine
 10
80.25000000000005
 20
75.10000000000004
 30
0.0
 11
84.15000000000004
 21
75.10000000000004
 31
0.0
  0
ARC
  5
1072D
330
DE84
100
AcDbEntity
  8
0
100
AcDbCircle
 10
82.19999999999998
 20
80.40000000000002
 30
0.0
 40
6.4
100
AcDbArc
 50
240.099599999958
 51
299.9003000000206
  0
LINE
  5
1072E
330
DE84
100
AcDbEntity
  8
0
100
AcDbLine
 10
89.80000000000002
 20
85.40000000000002
 30
0.0
 11
64.59999999999997
 21
85.40000000000002
 31
0.0
  0
LINE
  5
1072F
330
DE84
100
AcDbEntity
  8
0
100
AcDbLine
 10
89.80000000000002
 20
84.90000000000001
 30
0.0
 11
64.59999999999997
 21
84.90000000000001
 31
0.0
  0
LINE
  5
10730
330
DE84
100
AcDbEntity
  8
0
100
AcDbLine
 10
89.80000000000002
 20
98.40000000000003
 30
0.0
 11
64.59999999999997
 21
98.40000000000003
 31
0.0
  0
LINE
  5
10737
330
DE84
100
AcDbEntity
  8
0
100
AcDbLine
 10
61.50000000000005
 20
95.90000000000001
 30
0.0
 11
60.50000000000006
 21
95.90000000000001
 31
0.0
  0
LINE
  5
10738
330
DE84
100
AcDbEntity
  8
0
100
AcDbLine
 10
61.50000000000005
 20
87.90000000000002
 30
0.0
 11
60.50000000000006
 21
87.90000000000002
 31
0.0
  0
LINE
  5
10739
330
DE84
100
AcDbEntity
  8
0
100
AcDbLine
 10
61.50000000000005
 20
82.40000000000001
 30
0.0
 11
60.50000000000006
 21
82.40000000000001
 31
0.0
  0
LINE
  5
1073A
330
DE84
100
AcDbEntity
  8
0
100
AcDbLine
 10
61.50000000000005
 20
74.40000000000002
 30
0.0
 11
60.50000000000006
 21
74.40000000000002
 31
0.0
  0
ARC
  5
1073F
330
DE84
100
AcDbEntity
  8
0
100
AcDbCircle
 10
49.99999999999994
 20
84.90000000000001
 30
0.0
 40
8.0
100
AcDbArc
 50
57.95219059588792
 51
122.0478094041121
  0
ARC
  5
10740
330
DE84
100
AcDbEntity
  8
0
100
AcDbCircle
 10
49.99999999999994
 20
84.90000000000001
 30
0.0
 40
7.2
100
AcDbArc
 50
60.92567998547894
 51
119.074320014521
  0
CIRCLE
  5
10741
330
DE84
100
AcDbEntity
  8
0
100
AcDbCircle
 10
49.99999999999994
 20
84.90000000000001
 30
0.0
 40
3.5
  0
CIRCLE
  5
10742
330
DE84
100
AcDbEntity
  8
0
100
AcDbCircle
 10
49.99999999999994
 20
84.90000000000001
 30
0.0
 40
4.75
  0
ARC
  5
10743
330
DE84
100
AcDbEntity
  8
0
100
AcDbCircle
 10
49.99999999999994
 20
84.90000000000001
 30
0.0
 40
8.0
100
AcDbArc
 50
237.9521905958879
 51
302.047809404112
  0
ARC
  5
10744
330
DE84
100
AcDbEntity
  8
0
100
AcDbCircle
 10
49.99999999999994
 20
84.90000000000001
 30
0.0
 40
7.2
100
AcDbArc
 50
240.9256799854789
 51
299.0743200145211
  0
LINE
  5
10745
330
DE84
100
AcDbEntity
  8
0
100
AcDbLine
 10
39.99999999999995
 20
98.40000000000003
 30
0.0
 11
60.00000000000006
 21
98.40000000000003
 31
0.0
  0
LINE
  5
10746
330
DE84
100
AcDbEntity
  8
0
100
AcDbLine
 10
44.87347583639752
 20
91.79429111656883
 30
0.0
 11
45.30815482454892
 21
91.3596121284174
 31
0.0
  0
CIRCLE
  5
10747
330
DE84
100
AcDbEntity
  8
0
100
AcDbCircle
 10
43.98959235991418
 20
90.91040764008569
 30
0.0
 40
0.525
  0
ARC
  5
10748
330
DE84
100
AcDbEntity
  8
0
100
AcDbCircle
 10
45.38354755580036
 20
92.27416889082716
 30
0.0
 40
0.7000000000000001
100
AcDbArc
 50
224.9999999999954
 51
302.047809404112
  0
ARC
  5
10749
330
DE84
100
AcDbEntity
  8
0
100
AcDbCircle
 10
46.01526160573558
 20
92.06671890960398
 30
0.0
 40
1.0
100
AcDbArc
 50
224.9999999999954
 51
299.0743200145211
  0
ARC
  5
1074A
330
DE84
100
AcDbEntity
  8
0
100
AcDbCircle
 10
39.49999999999994
 20
96.40000000000002
 30
0.0
 40
0.5
100
AcDbArc
 50
270.0
 51
0.0
  0
LINE
  5
1074B
330
DE84
100
AcDbEntity
  8
0
100
AcDbLine
 10
39.99999999999995
 20
98.40000000000003
 30
0.0
 11
39.99999999999995
 21
96.40000000000002
 31
0.0
  0
ARC
  5
1074C
330
DE84
100
AcDbEntity
  8
0
100
AcDbCircle
 10
43.98959235991418
 20
90.91040764008569
 30
0.0
 40
1.25
100
AcDbArc
 50
44.99999999999539
 51
224.9999999999954
  0
CIRCLE
  5
1074D
330
DE84
100
AcDbEntity
  8
0
100
AcDbCircle
 10
43.98959235991418
 20
90.91040764008569
 30
0.0
 40
0.9
  0
ARC
  5
1074E
330
DE84
100
AcDbEntity
  8
0
100
AcDbCircle
 10
42.83328109039615
 20
88.88473839426444
 30
0.0
 40
1.0
100
AcDbArc
 50
330.9256799854316
 51
44.99999999999539
  0
ARC
  5
1074F
330
DE84
100
AcDbEntity
  8
0
100
AcDbCircle
 10
42.83328109039615
 20
80.91526160573549
 30
0.0
 40
1.0
100
AcDbArc
 50
315.0000000000046
 51
29.07432001456836
  0
ARC
  5
10750
330
DE84
100
AcDbEntity
  8
0
100
AcDbCircle
 10
39.49999999999994
 20
87.40000000000001
 30
0.0
 40
0.5
100
AcDbArc
 50
0.0
 51
90.0
  0
ARC
  5
10751
330
DE84
100
AcDbEntity
  8
0
100
AcDbCircle
 10
42.6258311091729
 20
80.28354755580032
 30
0.0
 40
0.7000000000000001
100
AcDbArc
 50
315.0000000000046
 51
32.04780940412241
  0
ARC
  5
10752
330
DE84
100
AcDbEntity
  8
0
100
AcDbCircle
 10
39.49999999999994
 20
82.90000000000002
 30
0.0
 40
0.5
100
AcDbArc
 50
270.0
 51
0.0
  0
ARC
  5
10753
330
DE84
100
AcDbEntity
  8
0
100
AcDbCircle
 10
49.99999999999994
 20
84.90000000000001
 30
0.0
 40
8.0
100
AcDbArc
 50
147.9521905958776
 51
212.0478094041224
  0
LINE
  5
10754
330
DE84
100
AcDbEntity
  8
0
100
AcDbLine
 10
39.99999999999995
 20
87.40000000000001
 30
0.0
 11
39.99999999999995
 21
82.90000000000002
 31
0.0
  0
LINE
  5
10755
330
DE84
100
AcDbEntity
  8
0
100
AcDbLine
 10
43.10570888343119
 20
79.77347583639759
 30
0.0
 11
43.54038787158259
 21
80.20815482454903
 31
0.0
  0
ARC
  5
10756
330
DE84
100
AcDbEntity
  8
0
100
AcDbCircle
 10
49.99999999999994
 20
84.90000000000001
 30
0.0
 40
7.2
100
AcDbArc
 50
150.9256799854316
 51
209.0743200145683
  0
ARC
  5
10757
330
DE84
100
AcDbEntity
  8
0
100
AcDbCircle
 10
14.23342184255927
 20
91.90000000000003
 30
0.0
 40
26.07520948992561
100
AcDbArc
 50
351.7985144021036
 51
8.201485597896336
  0
ARC
  5
10758
330
DE84
100
AcDbEntity
  8
0
100
AcDbCircle
 10
42.62583110917279
 20
89.51645244419962
 30
0.0
 40
0.7000000000000001
100
AcDbArc
 50
327.9521905958776
 51
44.99999999999539
  0
LINE
  5
10759
330
DE84
100
AcDbEntity
  8
0
100
AcDbLine
 10
43.10570888343119
 20
90.02652416360245
 30
0.0
 11
43.54038787158259
 21
89.59184517545102
 31
0.0
  0
LINE
  5
1075A
330
DE84
100
AcDbEntity
  8
0
100
AcDbLine
 10
44.87347583639752
 20
78.00570888343113
 30
0.0
 11
45.30815482454892
 21
78.44038787158265
 31
0.0
  0
ARC
  5
1075B
330
DE84
100
AcDbEntity
  8
0
100
AcDbCircle
 10
45.38354755580036
 20
77.52583110917287
 30
0.0
 40
0.7000000000000001
100
AcDbArc
 50
57.95219059588792
 51
135.0000000000046
  0
ARC
  5
1075C
330
DE84
100
AcDbEntity
  8
0
100
AcDbCircle
 10
46.01526160573558
 20
77.73328109039606
 30
0.0
 40
1.0
100
AcDbArc
 50
60.92567998547894
 51
135.0000000000046
  0
ARC
  5
1075D
330
DE84
100
AcDbEntity
  8
0
100
AcDbCircle
 10
39.49999999999994
 20
73.90000000000002
 30
0.0
 40
0.5
100
AcDbArc
 50
0.0
 51
90.0
  0
ARC
  5
1075E
330
DE84
100
AcDbEntity
  8
0
100
AcDbCircle
 10
14.23342184255927
 20
78.40000000000002
 30
0.0
 40
26.07520948992561
100
AcDbArc
 50
351.7985144021036
 51
8.201485597896336
  0
CIRCLE
  5
1075F
330
DE84
100
AcDbEntity
  8
0
100
AcDbCircle
 10
43.98959235991441
 20
78.88959235991437
 30
0.0
 40
0.525
  0
CIRCLE
  5
10760
330
DE84
100
AcDbEntity
  8
0
100
AcDbCircle
 10
43.98959235991441
 20
78.88959235991437
 30
0.0
 40
0.9
  0
ARC
  5
10761
330
DE84
100
AcDbEntity
  8
0
100
AcDbCircle
 10
43.98959235991441
 20
78.88959235991437
 30
0.0
 40
1.25
100
AcDbArc
 50
135.0000000000046
 51
315.0000000000046
  0
ARC
  5
10762
330
DE84
100
AcDbEntity
  8
0
100
AcDbCircle
 10
60.49999999999994
 20
96.40000000000002
 30
0.0
 40
0.5
100
AcDbArc
 50
180.0
 51
270.0
  0
LINE
  5
10763
330
DE84
100
AcDbEntity
  8
0
100
AcDbLine
 10
60.00000000000006
 20
98.40000000000003
 30
0.0
 11
60.00000000000006
 21
96.40000000000002
 31
0.0
  0
ARC
  5
10764
330
DE84
100
AcDbEntity
  8
0
100
AcDbCircle
 10
60.49999999999994
 20
87.40000000000001
 30
0.0
 40
0.5
100
AcDbArc
 50
90.0
 51
180.0
  0
ARC
  5
10765
330
DE84
100
AcDbEntity
  8
0
100
AcDbCircle
 10
60.49999999999994
 20
82.90000000000002
 30
0.0
 40
0.5
100
AcDbArc
 50
180.0
 51
270.0
  0
LINE
  5
10766
330
DE84
100
AcDbEntity
  8
0
100
AcDbLine
 10
56.89429111656881
 20
79.77347583639759
 30
0.0
 11
56.4596121284174
 21
80.20815482454903
 31
0.0
  0
ARC
  5
10767
330
DE84
100
AcDbEntity
  8
0
100
AcDbCircle
 10
57.3741688908272
 20
80.28354755580044
 30
0.0
 40
0.7000000000000001
100
AcDbArc
 50
147.9521905958776
 51
224.9999999999954
  0
ARC
  5
10768
330
DE84
100
AcDbEntity
  8
0
100
AcDbCircle
 10
49.99999999999994
 20
84.90000000000001
 30
0.0
 40
8.0
100
AcDbArc
 50
327.9521905958776
 51
32.04780940412241
  0
LINE
  5
10769
330
DE84
100
AcDbEntity
  8
0
100
AcDbLine
 10
60.00000000000006
 20
87.40000000000001
 30
0.0
 11
60.00000000000006
 21
82.90000000000002
 31
0.0
  0
ARC
  5
1076A
330
DE84
100
AcDbEntity
  8
0
100
AcDbCircle
 10
85.76657815744074
 20
91.90000000000003
 30
0.0
 40
26.07520948992561
100
AcDbArc
 50
171.7985144021034
 51
188.2014855978963
  0
ARC
  5
1076B
330
DE84
100
AcDbEntity
  8
0
100
AcDbCircle
 10
57.37416889082709
 20
89.51645244419971
 30
0.0
 40
0.7000000000000001
100
AcDbArc
 50
135.0000000000046
 51
212.0478094041224
  0
LINE
  5
1076C
330
DE84
100
AcDbEntity
  8
0
100
AcDbLine
 10
56.89429111656881
 20
90.02652416360254
 30
0.0
 11
56.4596121284174
 21
89.59184517545102
 31
0.0
  0
ARC
  5
1076D
330
DE84
100
AcDbEntity
  8
0
100
AcDbCircle
 10
60.49999999999994
 20
73.90000000000002
 30
0.0
 40
0.5
100
AcDbArc
 50
90.0
 51
180.0
  0
ARC
  5
1076E
330
DE84
100
AcDbEntity
  8
0
100
AcDbCircle
 10
85.76657815744074
 20
78.40000000000002
 30
0.0
 40
26.07520948992561
100
AcDbArc
 50
171.7985144021034
 51
188.2014855978963
  0
LINE
  5
1076F
330
DE84
100
AcDbEntity
  8
0
100
AcDbLine
 10
55.12652416360248
 20
91.79429111656892
 30
0.0
 11
54.69184517545108
 21
91.3596121284174
 31
0.0
  0
ARC
  5
10770
330
DE84
100
AcDbEntity
  8
0
100
AcDbCircle
 10
54.61645244419964
 20
92.27416889082716
 30
0.0
 40
0.7000000000000001
100
AcDbArc
 50
237.9521905958879
 51
315.0000000000046
  0
ARC
  5
10771
330
DE84
100
AcDbEntity
  8
0
100
AcDbCircle
 10
53.98473839426441
 20
92.06671890960398
 30
0.0
 40
1.0
100
AcDbArc
 50
240.9256799854789
 51
315.0000000000046
  0
LINE
  5
10772
330
DE84
100
AcDbEntity
  8
0
100
AcDbLine
 10
55.12652416360248
 20
78.00570888343121
 30
0.0
 11
54.69184517545108
 21
78.44038787158265
 31
0.0
  0
ARC
  5
10773
330
DE84
100
AcDbEntity
  8
0
100
AcDbCircle
 10
53.98473839426441
 20
77.73328109039606
 30
0.0
 40
1.0
100
AcDbArc
 50
44.99999999999539
 51
119.074320014521
  0
ARC
  5
10774
330
DE84
100
AcDbEntity
  8
0
100
AcDbCircle
 10
54.61645244419964
 20
77.52583110917287
 30
0.0
 40
0.7000000000000001
100
AcDbArc
 50
44.99999999999539
 51
122.0478094041121
  0
ARC
  5
10775
330
DE84
100
AcDbEntity
  8
0
100
AcDbCircle
 10
56.0104076400857
 20
90.91040764008569
 30
0.0
 40
1.25
100
AcDbArc
 50
315.0000000000046
 51
135.0000000000046
  0
ARC
  5
10776
330
DE84
100
AcDbEntity
  8
0
100
AcDbCircle
 10
57.16671890960384
 20
80.91526160573561
 30
0.0
 40
1.0
100
AcDbArc
 50
150.9256799854316
 51
224.9999999999954
  0
CIRCLE
  5
10777
330
DE84
100
AcDbEntity
  8
0
100
AcDbCircle
 10
56.0104076400857
 20
78.88959235991437
 30
0.0
 40
0.9
  0
CIRCLE
  5
10778
330
DE84
100
AcDbEntity
  8
0
100
AcDbCircle
 10
56.0104076400857
 20
78.88959235991437
 30
0.0
 40
0.525
  0
ARC
  5
10779
330
DE84
100
AcDbEntity
  8
0
100
AcDbCircle
 10
56.0104076400857
 20
78.88959235991437
 30
0.0
 40
1.25
100
AcDbArc
 50
224.9999999999954
 51
44.99999999999539
  0
ARC
  5
1077A
330
DE84
100
AcDbEntity
  8
0
100
AcDbCircle
 10
57.16671890960384
 20
88.88473839426454
 30
0.0
 40
1.0
100
AcDbArc
 50
135.0000000000046
 51
209.0743200145683
  0
CIRCLE
  5
1077B
330
DE84
100
AcDbEntity
  8
0
100
AcDbCircle
 10
56.0104076400857
 20
90.91040764008569
 30
0.0
 40
0.9
  0
CIRCLE
  5
1077C
330
DE84
100
AcDbEntity
  8
0
100
AcDbCircle
 10
56.0104076400857
 20
90.91040764008569
 30
0.0
 40
0.525
  0
ARC
  5
1077D
330
DE84
100
AcDbEntity
  8
0
100
AcDbCircle
 10
49.99999999999994
 20
84.90000000000001
 30
0.0
 40
7.2
100
AcDbArc
 50
330.9256799854316
 51
29.07432001456836
  0
ARC
  5
107C6
330
DE84
100
AcDbEntity
  8
0
100
AcDbCircle
 10
69.80000000000001
 20
91.90000000000003
 30
0.0
 40
6.4
100
AcDbArc
 50
55.47531384320638
 51
124.5246825149985
  0
ARC
  5
107C7
330
DE84
100
AcDbEntity
  8
0
100
AcDbCircle
 10
72.90000000000003
 20
80.90000000000001
 30
0.0
 40
1.899999
100
AcDbArc
 50
74.63968248079985
 51
144.6655407443169
  0
ARC
  5
107C8
330
DE84
100
AcDbEntity
  8
0
100
AcDbCircle
 10
69.80000000000001
 20
91.90000000000003
 30
0.0
 40
6.4
100
AcDbArc
 50
235.4752810195613
 51
304.5246825149986
  0
ARC
  5
107CA
330
DE84
100
AcDbEntity
  8
0
100
AcDbCircle
 10
69.80000000000001
 20
78.40000000000002
 30
0.0
 40
6.4
100
AcDbArc
 50
55.47531384320638
 51
124.5246825149985
  0
ARC
  5
107CB
330
DE84
100
AcDbEntity
  8
0
100
AcDbCircle
 10
69.19999999999999
 20
80.40000000000002
 30
0.0
 40
6.4
100
AcDbArc
 50
240.099599999958
 51
299.9003000000206
  0
LINE
  5
107CC
330
DE84
100
AcDbEntity
  8
0
100
AcDbLine
 10
71.20148999999997
 20
80.15674000000002
 30
0.0
 11
72.99960000000004
 21
77.58877000000005
 31
0.0
  0
ARC
  5
107CE
330
DE84
100
AcDbEntity
  8
0
100
AcDbCircle
 10
72.90000000000003
 20
80.90000000000001
 30
0.0
 40
1.899999
100
AcDbArc
 50
231.9300593361614
 51
32.6520788148308
  0
CIRCLE
  5
107CF
330
DE84
100
AcDbEntity
  8
0
100
AcDbCircle
 10
72.90000000000003
 20
80.90000000000001
 30
0.0
 40
1.4
  0
ARC
  5
107DD
330
DE84
100
AcDbEntity
  8
0
100
AcDbCircle
 10
69.19999999999999
 20
80.40000000000002
 30
0.0
 40
0.9
100
AcDbArc
 50
283.6854999999971
 51
343.8724000000132
  0
ARC
  5
107DE
330
DE84
100
AcDbEntity
  8
0
100
AcDbCircle
 10
69.19999999999999
 20
80.40000000000002
 30
0.0
 40
1.1
100
AcDbArc
 50
294.0795000000177
 51
346.8633999999878
  0
ARC
  5
107E2
330
DE84
100
AcDbEntity
  8
0
100
AcDbCircle
 10
69.19999999999999
 20
80.40000000000002
 30
0.0
 40
0.9
100
AcDbArc
 50
196.1275999999868
 51
206.3205999999987
  0
ARC
  5
107E3
330
DE84
100
AcDbEntity
  8
0
100
AcDbCircle
 10
67.76587999999998
 20
79.69057000000005
 30
0.0
 40
0.7000000000000001
100
AcDbArc
 50
335.0030999999875
 51
26.32058999995166
  0
ARC
  5
107E4
330
DE84
100
AcDbEntity
  8
0
100
AcDbCircle
 10
69.19999999999999
 20
80.40000000000002
 30
0.0
 40
1.1
100
AcDbArc
 50
193.1364999999946
 51
195.9265999999735
  0
ARC
  5
107E5
330
DE84
100
AcDbEntity
  8
0
100
AcDbCircle
 10
67.56525999999991
 20
79.93350000000003
 30
0.0
 40
0.6000000000000001
100
AcDbArc
 50
338.6063000000295
 51
15.92660999999427
  0
LWPOLYLINE
  5
107E6
330
DE84
100
AcDbEntity
  8
0
100
AcDbPolyline
 90
        8
 70
     1
 43
0.0
 10
66.55000000000001
 20
80.15000000000002
 10
71.15000000000003
 20
80.15000000000013
 42
0.4142135623730951
 10
71.34999999999997
 20
80.35000000000012
 10
71.34999999999997
 20
82.45000000000002
 42
0.4142135623730895
 10
71.15000000000003
 20
82.65000000000002
 10
66.55000000000001
 20
82.65000000000013
 42
0.4142135623730951
 10
66.34999999999997
 20
82.45000000000011
 10
66.34999999999997
 20
80.35000000000003
 42
0.4142135623730951
  0
ARC
  5
107E7
330
DE84
100
AcDbEntity
  8
0
100
AcDbCircle
 10
69.89359999999994
 20
78.84794000000003
 30
0.0
 40
0.6000000000000001
100
AcDbArc
 50
114.0796000000092
 51
151.4000000000265
  0
ARC
  5
107E8
330
DE84
100
AcDbEntity
  8
0
100
AcDbCircle
 10
69.57855000000001
 20
78.84543000000006
 30
0.0
 40
0.7000000000000001
100
AcDbArc
 50
103.6856000000049
 51
155.0030999999874
  0
LWPOLYLINE
  5
107EA
330
DE84
100
AcDbEntity
  8
0
100
AcDbPolyline
 90
        4
 70
     1
 43
0.0
 10
68.19999999999999
 20
82.65000000000002
 10
71.40000000000004
 20
82.65000000000002
 10
71.40000000000004
 20
84.15000000000002
 10
68.19999999999999
 20
84.15000000000002
  0
LINE
  5
107F0
330
DE84
100
AcDbEntity
  8
0
100
AcDbLine
 10
62.09999999999997
 20
95.90000000000001
 30
0.0
 11
61.50000000000005
 21
95.90000000000001
 31
0.0
  0
ARC
  5
107F1
330
DE84
100
AcDbEntity
  8
0
100
AcDbCircle
 10
64.59999999999997
 20
95.90000000000001
 30
0.0
 40
2.5
100
AcDbArc
 50
90.0
 51
180.0
  0
LINE
  5
107F2
330
DE84
100
AcDbEntity
  8
0
100
AcDbLine
 10
61.50000000000005
 20
87.90000000000002
 30
0.0
 11
62.09999999999997
 21
87.90000000000002
 31
0.0
  0
ARC
  5
107F3
330
DE84
100
AcDbEntity
  8
0
100
AcDbCircle
 10
64.59999999999997
 20
87.90000000000002
 30
0.0
 40
2.5
100
AcDbArc
 50
180.0
 51
270.0
  0
LINE
  5
107F4
330
DE84
100
AcDbEntity
  8
0
100
AcDbLine
 10
62.09999999999997
 20
82.40000000000001
 30
0.0
 11
61.50000000000005
 21
82.40000000000001
 31
0.0
  0
ARC
  5
107F5
330
DE84
100
AcDbEntity
  8
0
100
AcDbCircle
 10
64.59999999999997
 20
82.40000000000001
 30
0.0
 40
2.5
100
AcDbArc
 50
90.0
 51
180.0
  0
ARC
  5
107F6
330
DE84
100
AcDbEntity
  8
0
100
AcDbCircle
 10
69.80000000000001
 20
91.90000000000003
 30
0.0
 40
6.4
100
AcDbArc
 50
145.4753174850028
 51
214.5245989381225
  0
LINE
  5
107F7
330
DE84
100
AcDbEntity
  8
0
100
AcDbLine
 10
62.09999999999997
 20
95.90000000000001
 30
0.0
 11
62.09999999999997
 21
87.90000000000002
 31
0.0
  0
LINE
  5
107F8
330
DE84
100
AcDbEntity
  8
0
100
AcDbLine
 10
61.50000000000005
 20
95.90000000000001
 30
0.0
 11
61.50000000000005
 21
87.90000000000002
 31
0.0
  0
CIRCLE
  5
107F9
330
DE84
100
AcDbEntity
  8
0
100
AcDbCircle
 10
65.02703000000003
 20
87.12704000000007
 30
0.0
 40
0.9
  0
CIRCLE
  5
107FA
330
DE84
100
AcDbEntity
  8
0
100
AcDbCircle
 10
65.02703000000003
 20
87.12704000000007
 30
0.0
 40
1.25
  0
CIRCLE
  5
107FB
330
DE84
100
AcDbEntity
  8
0
100
AcDbCircle
 10
65.02703172698767
 20
87.12703172698768
 30
0.0
 40
0.525
  0
CIRCLE
  5
107FD
330
DE84
100
AcDbEntity
  8
0
100
AcDbCircle
 10
65.02703000000003
 20
83.17297000000001
 30
0.0
 40
1.25
  0
CIRCLE
  5
107FE
330
DE84
100
AcDbEntity
  8
0
100
AcDbCircle
 10
65.02703422698454
 20
83.17297577300163
 30
0.0
 40
0.525
  0
CIRCLE
  5
107FF
330
DE84
100
AcDbEntity
  8
0
100
AcDbCircle
 10
65.02703000000003
 20
83.17297000000001
 30
0.0
 40
0.9
  0
CIRCLE
  5
10800
330
DE84
100
AcDbEntity
  8
0
100
AcDbCircle
 10
65.02703000000003
 20
96.67297000000001
 30
0.0
 40
1.25
  0
CIRCLE
  5
10801
330
DE84
100
AcDbEntity
  8
0
100
AcDbCircle
 10
65.02703422698454
 20
96.67297577300161
 30
0.0
 40
0.525
  0
CIRCLE
  5
10802
330
DE84
100
AcDbEntity
  8
0
100
AcDbCircle
 10
65.02703000000003
 20
96.67297000000001
 30
0.0
 40
0.9
  0
LINE
  5
10803
330
DE84
100
AcDbEntity
  8
0
100
AcDbLine
 10
71.15000000000003
 20
76.70000000000003
 30
0.0
 11
71.15000000000003
 21
75.10000000000004
 31
0.0
  0
LINE
  5
10804
330
DE84
100
AcDbEntity
  8
0
100
AcDbLine
 10
67.25000000000005
 20
75.25263999999999
 30
0.0
 11
67.25000000000005
 21
75.10000000000004
 31
0.0
  0
ARC
  5
10805
330
DE84
100
AcDbEntity
  8
0
100
AcDbCircle
 10
66.83361000000008
 20
75.32455000000003
 30
0.0
 40
0.3
100
AcDbArc
 50
155.0032999999995
 51
335.0032999999995
  0
ARC
  5
10806
330
DE84
100
AcDbEntity
  8
0
100
AcDbCircle
 10
66.83361000000008
 20
75.32455000000003
 30
0.0
 40
0.3999992
100
AcDbArc
 50
158.6063999999923
 51
331.4002000000066
  0
LINE
  5
10807
330
DE84
100
AcDbEntity
  8
0
100
AcDbLine
 10
67.25000000000005
 20
75.10000000000004
 30
0.0
 11
71.15000000000003
 21
75.10000000000004
 31
0.0
  0
LINE
  5
10808
330
DE84
100
AcDbEntity
  8
0
100
AcDbLine
 10
68.03913000000005
 20
76.70000000000003
 30
0.0
 11
71.15000000000003
 21
76.70000000000003
 31
0.0
  0
LINE
  5
10809
330
DE84
100
AcDbEntity
  8
0
100
AcDbLine
 10
61.50000000000005
 20
74.40000000000002
 30
0.0
 11
62.09999999999997
 21
74.40000000000002
 31
0.0
  0
CIRCLE
  5
1080A
330
DE84
100
AcDbEntity
  8
0
100
AcDbCircle
 10
65.02703000000003
 20
73.62704000000007
 30
0.0
 40
0.9
  0
CIRCLE
  5
1080B
330
DE84
100
AcDbEntity
  8
0
100
AcDbCircle
 10
65.02703172698767
 20
73.62703172698768
 30
0.0
 40
0.525
  0
ARC
  5
1080C
330
DE84
100
AcDbEntity
  8
0
100
AcDbCircle
 10
66.95677999999992
 20
76.49898000000006
 30
0.0
 40
1.899999
100
AcDbArc
 50
145.0000000000056
 51
240.099599999958
  0
ARC
  5
1080D
330
DE84
100
AcDbEntity
  8
0
100
AcDbCircle
 10
69.80000000000001
 20
78.40000000000002
 30
0.0
 40
6.4
100
AcDbArc
 50
145.4753174850028
 51
214.5245989381225
  0
LINE
  5
1080E
330
DE84
100
AcDbEntity
  8
0
100
AcDbLine
 10
62.09999999999997
 20
82.40000000000001
 30
0.0
 11
62.09999999999997
 21
74.40000000000002
 31
0.0
  0
LINE
  5
1080F
330
DE84
100
AcDbEntity
  8
0
100
AcDbLine
 10
61.50000000000005
 20
82.40000000000001
 30
0.0
 11
61.50000000000005
 21
74.40000000000002
 31
0.0
  0
LINE
  5
10810
330
DE84
100
AcDbEntity
  8
0
100
AcDbLine
 10
68.12392000000006
 20
79.71465000000002
 30
0.0
 11
66.46116999999998
 21
75.47046000000001
 31
0.0
  0
LINE
  5
10811
330
DE84
100
AcDbEntity
  8
0
100
AcDbLine
 10
66.56171
 20
75.45131000000004
 30
0.0
 11
68.40031000000005
 21
79.39477000000001
 31
0.0
  0
LINE
  5
10812
330
DE84
100
AcDbEntity
  8
0
100
AcDbLine
 10
67.10552000000001
 20
75.19777000000006
 30
0.0
 11
68.94412000000006
 21
79.14121999999998
 31
0.0
  0
LINE
  5
10813
330
DE84
100
AcDbEntity
  8
0
100
AcDbLine
 10
69.36682000000002
 20
79.13515
 30
0.0
 11
67.18481000000003
 21
75.13307000000008
 31
0.0
  0
LINE
  5
10814
330
DE84
100
AcDbEntity
  8
0
100
AcDbLine
 10
65.40038999999996
 20
77.58878000000006
 30
0.0
 11
67.19378
 21
80.15000000000002
 31
0.0
  0
CIRCLE
  5
1081A
330
DE84
100
AcDbEntity
  8
0
100
AcDbCircle
 10
74.57297327300597
 20
96.67297327300603
 30
0.0
 40
0.525
  0
CIRCLE
  5
1081B
330
DE84
100
AcDbEntity
  8
0
100
AcDbCircle
 10
78.02703000000002
 20
96.67297000000001
 30
0.0
 40
1.25
  0
CIRCLE
  5
1081C
330
DE84
100
AcDbEntity
  8
0
100
AcDbCircle
 10
78.02703422698454
 20
96.67297577300161
 30
0.0
 40
0.525
  0
CIRCLE
  5
1081D
330
DE84
100
AcDbEntity
  8
0
100
AcDbCircle
 10
78.02703000000002
 20
96.67297000000001
 30
0.0
 40
0.9
  0
ARC
  5
10821
330
DE84
100
AcDbEntity
  8
0
100
AcDbCircle
 10
82.19999999999998
 20
80.40000000000002
 30
0.0
 40
0.9
100
AcDbArc
 50
196.1275999999868
 51
206.3205999999987
  0
ARC
  5
10822
330
DE84
100
AcDbEntity
  8
0
100
AcDbCircle
 10
80.76587999999999
 20
79.69057000000005
 30
0.0
 40
0.7000000000000001
100
AcDbArc
 50
335.0030999999875
 51
26.32058999995166
  0
ARC
  5
10823
330
DE84
100
AcDbEntity
  8
0
100
AcDbCircle
 10
82.19999999999998
 20
80.40000000000002
 30
0.0
 40
1.1
100
AcDbArc
 50
193.1364999999946
 51
195.9265999999735
  0
ARC
  5
10824
330
DE84
100
AcDbEntity
  8
0
100
AcDbCircle
 10
80.5652599999999
 20
79.93350000000003
 30
0.0
 40
0.6000000000000001
100
AcDbArc
 50
338.6063000000295
 51
15.92660999999427
  0
CIRCLE
  5
10825
330
DE84
100
AcDbEntity
  8
0
100
AcDbCircle
 10
74.57297577299818
 20
87.12703422698108
 30
0.0
 40
0.525
  0
CIRCLE
  5
10826
330
DE84
100
AcDbEntity
  8
0
100
AcDbCircle
 10
74.57297327300597
 20
83.17297327300604
 30
0.0
 40
0.525
  0
CIRCLE
  5
10827
330
DE84
100
AcDbEntity
  8
0
100
AcDbCircle
 10
78.02703000000002
 20
87.12704000000007
 30
0.0
 40
0.9
  0
CIRCLE
  5
10828
330
DE84
100
AcDbEntity
  8
0
100
AcDbCircle
 10
78.02703000000002
 20
87.12704000000007
 30
0.0
 40
1.25
  0
CIRCLE
  5
10829
330
DE84
100
AcDbEntity
  8
0
100
AcDbCircle
 10
78.02703172698767
 20
87.12703172698768
 30
0.0
 40
0.525
  0
CIRCLE
  5
1082A
330
DE84
100
AcDbEntity
  8
0
100
AcDbCircle
 10
78.02703000000002
 20
83.17297000000001
 30
0.0
 40
1.25
  0
CIRCLE
  5
1082B
330
DE84
100
AcDbEntity
  8
0
100
AcDbCircle
 10
78.02703422698454
 20
83.17297577300163
 30
0.0
 40
0.525
  0
CIRCLE
  5
1082C
330
DE84
100
AcDbEntity
  8
0
100
AcDbCircle
 10
78.02703000000002
 20
83.17297000000001
 30
0.0
 40
0.9
  0
ARC
  5
10831
330
DE84
100
AcDbEntity
  8
0
100
AcDbCircle
 10
82.80000000000001
 20
91.90000000000003
 30
0.0
 40
6.4
100
AcDbArc
 50
145.4753174850028
 51
214.5245989381225
  0
ARC
  5
10832
330
DE84
100
AcDbEntity
  8
0
100
AcDbCircle
 10
69.80000000000001
 20
91.90000000000003
 30
0.0
 40
6.4
100
AcDbArc
 50
325.4753174850029
 51
34.5246861567261
  0
ARC
  5
10834
330
DE84
100
AcDbEntity
  8
0
100
AcDbCircle
 10
82.57855000000001
 20
78.84543000000006
 30
0.0
 40
0.7000000000000001
100
AcDbArc
 50
103.6856000000049
 51
155.0030999999874
  0
LINE
  5
10836
330
DE84
100
AcDbEntity
  8
0
100
AcDbLine
 10
80.25000000000005
 20
75.25263999999999
 30
0.0
 11
80.25000000000005
 21
75.10000000000004
 31
0.0
  0
ARC
  5
10837
330
DE84
100
AcDbEntity
  8
0
100
AcDbCircle
 10
79.83361000000008
 20
75.32455000000003
 30
0.0
 40
0.3
100
AcDbArc
 50
155.0032999999995
 51
335.0032999999995
  0
ARC
  5
10838
330
DE84
100
AcDbEntity
  8
0
100
AcDbCircle
 10
79.83361000000008
 20
75.32455000000003
 30
0.0
 40
0.3999992
100
AcDbArc
 50
158.6063999999923
 51
331.4002000000066
  0
CIRCLE
  5
10839
330
DE84
100
AcDbEntity
  8
0
100
AcDbCircle
 10
74.57297577299818
 20
73.62703422698108
 30
0.0
 40
0.525
  0
CIRCLE
  5
1083A
330
DE84
100
AcDbEntity
  8
0
100
AcDbCircle
 10
78.02703000000002
 20
73.62704000000007
 30
0.0
 40
0.9
  0
CIRCLE
  5
1083B
330
DE84
100
AcDbEntity
  8
0
100
AcDbCircle
 10
78.02703172698767
 20
73.62703172698768
 30
0.0
 40
0.525
  0
ARC
  5
1083C
330
DE84
100
AcDbEntity
  8
0
100
AcDbCircle
 10
79.95677999999992
 20
76.49898000000006
 30
0.0
 40
1.899999
100
AcDbArc
 50
145.0000000000056
 51
240.099599999958
  0
ARC
  5
1083D
330
DE84
100
AcDbEntity
  8
0
100
AcDbCircle
 10
82.80000000000001
 20
78.40000000000002
 30
0.0
 40
6.4
100
AcDbArc
 50
145.4753174850028
 51
214.5245989381225
  0
ARC
  5
1083E
330
DE84
100
AcDbEntity
  8
0
100
AcDbCircle
 10
69.80000000000001
 20
78.40000000000002
 30
0.0
 40
6.4
100
AcDbArc
 50
325.4753174850029
 51
34.5246861567261
  0
LINE
  5
1083F
330
DE84
100
AcDbEntity
  8
0
100
AcDbLine
 10
81.12392000000005
 20
79.71465000000002
 30
0.0
 11
79.46116999999998
 21
75.47046000000001
 31
0.0
  0
LINE
  5
10840
330
DE84
100
AcDbEntity
  8
0
100
AcDbLine
 10
79.56171000000001
 20
75.45131000000004
 30
0.0
 11
81.40031000000005
 21
79.39477000000001
 31
0.0
  0
LINE
  5
10841
330
DE84
100
AcDbEntity
  8
0
100
AcDbLine
 10
80.10552000000002
 20
75.19777000000006
 30
0.0
 11
81.94412000000005
 21
79.14121999999998
 31
0.0
  0
LINE
  5
10842
330
DE84
100
AcDbEntity
  8
0
100
AcDbLine
 10
82.36682000000001
 20
79.13515
 30
0.0
 11
80.18481000000003
 21
75.13307000000008
 31
0.0
  0
LINE
  5
10843
330
DE84
100
AcDbEntity
  8
0
100
AcDbLine
 10
78.40038999999996
 20
77.58878000000006
 30
0.0
 11
80.19378000000001
 21
80.15000000000002
 31
0.0
  0
ARC
  5
10845
330
DE84
100
AcDbEntity
  8
0
100
AcDbCircle
 10
71.44322000000006
 20
76.49898000000006
 30
0.0
 40
1.899999
100
AcDbArc
 50
299.9003000000206
 51
35.00002999995945
  0
CIRCLE
  5
10846
330
DE84
100
AcDbEntity
  8
0
100
AcDbCircle
 10
74.57297
 20
73.62703000000003
 30
0.0
 40
0.9
  0
CIRCLE
  5
10847
330
DE84
100
AcDbEntity
  8
0
100
AcDbCircle
 10
74.57297
 20
87.12703000000002
 30
0.0
 40
0.9
  0
CIRCLE
  5
10848
330
DE84
100
AcDbEntity
  8
0
100
AcDbCircle
 10
74.57297
 20
87.12703000000002
 30
0.0
 40
1.25
  0
CIRCLE
  5
10849
330
DE84
100
AcDbEntity
  8
0
100
AcDbCircle
 10
74.57297077300921
 20
83.17297077300922
 30
0.0
 40
1.25
  0
CIRCLE
  5
1084A
330
DE84
100
AcDbEntity
  8
0
100
AcDbCircle
 10
74.57297077300921
 20
83.17297077300922
 30
0.0
 40
0.9
  0
CIRCLE
  5
1084B
330
DE84
100
AcDbEntity
  8
0
100
AcDbCircle
 10
74.57297077300921
 20
96.6729707730092
 30
0.0
 40
1.25
  0
CIRCLE
  5
1084C
330
DE84
100
AcDbEntity
  8
0
100
AcDbCircle
 10
74.57297077300921
 20
96.6729707730092
 30
0.0
 40
0.9
  0
LINE
  5
1087D
330
DE84
100
AcDbEntity
  8
0
100
AcDbLine
 10
89.49999999999993
 20
107.4
 30
0.0
 11
89.49999999999993
 21
98.40000000000003
 31
0.0
  0
LINE
  5
1087E
330
DE84
100
AcDbEntity
  8
0
100
AcDbLine
 10
93.19999999999998
 20
93.80000000000002
 30
0.0
 11
91.21963425214602
 21
93.80000000000002
 31
0.0
  0
CIRCLE
  5
1087F
330
DE84
100
AcDbEntity
  8
0
100
AcDbCircle
 10
91.99999999999993
 20
91.90000000000003
 30
0.0
 40
0.525
  0
LINE
  5
10880
330
DE84
100
AcDbEntity
  8
0
100
AcDbLine
 10
93.19999999999998
 20
90.00000000000001
 30
0.0
 11
91.21963425214602
 21
90.00000000000001
 31
0.0
  0
LINE
  5
10881
330
DE84
100
AcDbEntity
  8
0
100
AcDbLine
 10
93.19999999999998
 20
93.80000000000002
 30
0.0
 11
93.19999999999998
 21
90.00000000000001
 31
0.0
  0
LINE
  5
10882
330
DE84
100
AcDbEntity
  8
0
100
AcDbLine
 10
93.19999999999998
 20
80.30000000000002
 30
0.0
 11
91.21963425214602
 21
80.30000000000002
 31
0.0
  0
CIRCLE
  5
10883
330
DE84
100
AcDbEntity
  8
0
100
AcDbCircle
 10
91.99999999999993
 20
78.40000000000002
 30
0.0
 40
0.525
  0
LINE
  5
10884
330
DE84
100
AcDbEntity
  8
0
100
AcDbLine
 10
93.19999999999998
 20
76.50000000000002
 30
0.0
 11
91.21963425214602
 21
76.50000000000002
 31
0.0
  0
LINE
  5
10885
330
DE84
100
AcDbEntity
  8
0
100
AcDbLine
 10
93.19999999999998
 20
80.30000000000002
 30
0.0
 11
93.19999999999998
 21
76.50000000000002
 31
0.0
  0
ARC
  5
10886
330
DE84
100
AcDbEntity
  8
0
100
AcDbCircle
 10
89.80000000000002
 20
97.40000000000001
 30
0.0
 40
1.0
100
AcDbArc
 50
0.0
 51
90.0
  0
CIRCLE
  5
10887
330
DE84
100
AcDbEntity
  8
0
100
AcDbCircle
 10
87.57297327300596
 20
96.67297327300603
 30
0.0
 40
0.525
  0
CIRCLE
  5
1088C
330
DE84
100
AcDbEntity
  8
0
100
AcDbCircle
 10
87.57297077300922
 20
96.6729707730092
 30
0.0
 40
1.25
  0
CIRCLE
  5
1088D
330
DE84
100
AcDbEntity
  8
0
100
AcDbCircle
 10
87.57297077300922
 20
96.6729707730092
 30
0.0
 40
0.9
  0
LINE
  5
1088F
330
DE84
100
AcDbEntity
  8
0
100
AcDbLine
 10
89.49999999999993
 20
85.40000000000002
 30
0.0
 11
89.49999999999993
 21
84.90000000000001
 31
0.0
  0
ARC
  5
10890
330
DE84
100
AcDbEntity
  8
0
100
AcDbCircle
 10
89.80000000000002
 20
86.40000000000002
 30
0.0
 40
1.0
100
AcDbArc
 50
270.0
 51
0.0
  0
CIRCLE
  5
10891
330
DE84
100
AcDbEntity
  8
0
100
AcDbCircle
 10
87.57297577299818
 20
87.12703422698108
 30
0.0
 40
0.525
  0
CIRCLE
  5
10892
330
DE84
100
AcDbEntity
  8
0
100
AcDbCircle
 10
87.57297327300596
 20
83.17297327300604
 30
0.0
 40
0.525
  0
ARC
  5
10893
330
DE84
100
AcDbEntity
  8
0
100
AcDbCircle
 10
89.80000000000002
 20
83.90000000000002
 30
0.0
 40
1.0
100
AcDbArc
 50
0.0
 51
90.0
  0
ARC
  5
10894
330
DE84
100
AcDbEntity
  8
0
100
AcDbCircle
 10
82.19999999999998
 20
80.40000000000002
 30
0.0
 40
1.1
100
AcDbArc
 50
294.0795000000177
 51
346.8633999999878
  0
ARC
  5
10895
330
DE84
100
AcDbEntity
  8
0
100
AcDbCircle
 10
85.90000000000003
 20
80.90000000000001
 30
0.0
 40
1.899999
100
AcDbArc
 50
74.63968248079985
 51
144.6655407443169
  0
CIRCLE
  5
10896
330
DE84
100
AcDbEntity
  8
0
100
AcDbCircle
 10
85.90000000000003
 20
80.90000000000001
 30
0.0
 40
1.4
  0
CIRCLE
  5
10897
330
DE84
100
AcDbEntity
  8
0
100
AcDbCircle
 10
87.57296999999999
 20
87.12703000000002
 30
0.0
 40
0.9
  0
CIRCLE
  5
10898
330
DE84
100
AcDbEntity
  8
0
100
AcDbCircle
 10
87.57296999999999
 20
87.12703000000002
 30
0.0
 40
1.25
  0
CIRCLE
  5
10899
330
DE84
100
AcDbEntity
  8
0
100
AcDbCircle
 10
87.57297077300922
 20
83.17297077300922
 30
0.0
 40
1.25
  0
CIRCLE
  5
1089A
330
DE84
100
AcDbEntity
  8
0
100
AcDbCircle
 10
87.57297077300922
 20
83.17297077300922
 30
0.0
 40
0.9
  0
ARC
  5
1089B
330
DE84
100
AcDbEntity
  8
0
100
AcDbCircle
 10
82.80000000000001
 20
91.90000000000003
 30
0.0
 40
6.4
100
AcDbArc
 50
325.4753174850029
 51
34.5246861567261
  0
LINE
  5
1089C
330
DE84
100
AcDbEntity
  8
0
100
AcDbLine
 10
90.80000000000001
 20
97.40000000000001
 30
0.0
 11
90.80000000000001
 21
86.40000000000002
 31
0.0
  0
CIRCLE
  5
1089F
330
DE84
100
AcDbEntity
  8
0
100
AcDbCircle
 10
87.57297577299818
 20
73.62703422698108
 30
0.0
 40
0.525
  0
ARC
  5
108A0
330
DE84
100
AcDbEntity
  8
0
100
AcDbCircle
 10
84.44322000000004
 20
76.49898000000006
 30
0.0
 40
1.899999
100
AcDbArc
 50
299.9003000000206
 51
35.00002999995945
  0
LINE
  5
108A1
330
DE84
100
AcDbEntity
  8
0
100
AcDbLine
 10
84.15000000000004
 20
76.70000000000003
 30
0.0
 11
84.15000000000004
 21
75.10000000000004
 31
0.0
  0
CIRCLE
  5
108A2
330
DE84
100
AcDbEntity
  8
0
100
AcDbCircle
 10
87.57296999999999
 20
73.62703000000003
 30
0.0
 40
0.9
  0
ARC
  5
108A3
330
DE84
100
AcDbEntity
  8
0
100
AcDbCircle
 10
85.90000000000003
 20
80.90000000000001
 30
0.0
 40
1.899999
100
AcDbArc
 50
231.9300593361614
 51
32.6520788148308
  0
ARC
  5
108A4
330
DE84
100
AcDbEntity
  8
0
100
AcDbCircle
 10
82.80000000000001
 20
78.40000000000002
 30
0.0
 40
6.4
100
AcDbArc
 50
325.4753174850029
 51
34.5246861567261
  0
LINE
  5
108A5
330
DE84
100
AcDbEntity
  8
0
100
AcDbLine
 10
90.80000000000001
 20
83.90000000000002
 30
0.0
 11
90.80000000000001
 21
72.90000000000002
 31
0.0
  0
LINE
  5
108A6
330
DE84
100
AcDbEntity
  8
0
100
AcDbLine
 10
84.20148999999998
 20
80.15674000000002
 30
0.0
 11
85.99960000000004
 21
77.58877000000005
 31
0.0
  0
ARC
  5
108A7
330
DE84
100
AcDbEntity
  8
0
100
AcDbCircle
 10
68.80000000000001
 20
91.90000000000003
 30
0.0
 40
22.5
100
AcDbArc
 50
347.8985079681645
 51
12.10149203183554
  0
ARC
  5
108A8
330
DE84
100
AcDbEntity
  8
0
100
AcDbCircle
 10
68.80000000000001
 20
78.40000000000002
 30
0.0
 40
22.5
100
AcDbArc
 50
347.8985079681645
 51
12.10149203183554
  0
LINE
  5
108AB
330
DE84
100
AcDbEntity
  8
0
100
AcDbLine
 10
90.49999999999995
 20
126.4
 30
0.0
 11
93.49999999999994
 21
126.4
 31
0.0
  0
LINE
  5
108AD
330
DE84
100
AcDbEntity
  8
0
100
AcDbLine
 10
92.94999999999999
 20
123.9
 30
0.0
 11
92.94999999999999
 21
122.9
 31
0.0
  0
LINE
  5
108AE
330
DE84
100
AcDbEntity
  8
0
100
AcDbLine
 10
91.05000000000002
 20
123.9
 30
0.0
 11
91.05000000000002
 21
122.9
 31
0.0
  0
ARC
  5
108AF
330
DE84
100
AcDbEntity
  8
0
100
AcDbCircle
 10
91.99999999999993
 20
123.9
 30
0.0
 40
0.95
100
AcDbArc
 50
0.0
 51
180.0
  0
ARC
  5
108B1
330
DE84
100
AcDbEntity
  8
0
100
AcDbCircle
 10
91.99999999999993
 20
122.9
 30
0.0
 40
0.95
100
AcDbArc
 50
180.0
 51
0.0
  0
LINE
  5
108B3
330
DE84
100
AcDbEntity
  8
0
100
AcDbLine
 10
89.49999999999993
 20
125.4
 30
0.0
 11
90.49999999999995
 21
126.4
 31
0.0
  0
LINE
  5
108CC
330
DE84
100
AcDbEntity
  8
0
100
AcDbLine
 10
89.49999999999993
 20
125.4
 30
0.0
 11
89.50000000000006
 21
112.4
 31
0.0
  0
LINE
  5
108D0
330
DE84
100
AcDbEntity
  8
0
100
AcDbLine
 10
94.49999999999993
 20
125.4
 30
0.0
 11
93.49999999999994
 21
126.4
 31
0.0
  0
LINE
  5
10B6C
330
DE84
100
AcDbEntity
  8
0
100
AcDbLine
 10
46.50000000000005
 20
101.4
 30
0.0
 11
53.50000000000005
 21
101.4
 31
0.0
  0
ARC
  5
10B6D
330
DE84
100
AcDbEntity
  8
0
100
AcDbCircle
 10
58.00000000000017
 20
109.9
 30
0.0
 40
8.0
100
AcDbArc
 50
147.9521905958736
 51
212.0478094041264
  0
LINE
  5
10B6E
330
DE84
100
AcDbEntity
  8
0
100
AcDbLine
 10
82.00000000000017
 20
118.3284250579333
 30
0.0
 11
18.00000000000006
 21
118.3284250579333
 31
0.0
  0
LINE
  5
10B6F
330
DE84
100
AcDbEntity
  8
0
100
AcDbLine
 10
18.30000000000012
 20
119.9
 30
0.0
 11
81.7000000000001
 21
119.9
 31
0.0
  0
ARC
  5
10B70
330
DE84
100
AcDbEntity
  8
0
100
AcDbCircle
 10
42.00000000000005
 20
109.9
 30
0.0
 40
8.0
100
AcDbArc
 50
327.9521905958735
 51
32.04780940412642
  0
ARC
  5
10B71
330
DE84
100
AcDbEntity
  8
0
100
AcDbCircle
 10
42.00000000000005
 20
109.9
 30
0.0
 40
7.2
100
AcDbArc
 50
330.9256799854444
 51
29.07432001455561
  0
ARC
  5
10B72
330
DE84
100
AcDbEntity
  8
0
100
AcDbCircle
 10
42.00000000000005
 20
109.9
 30
0.0
 40
7.2
100
AcDbArc
 50
150.9256799854444
 51
209.0743200145556
  0
ARC
  5
10B73
330
DE84
100
AcDbEntity
  8
0
100
AcDbCircle
 10
42.00000000000005
 20
109.9
 30
0.0
 40
8.0
100
AcDbArc
 50
147.9521905958736
 51
212.0478094041264
  0
CIRCLE
  5
10B74
330
DE84
100
AcDbEntity
  8
0
100
AcDbCircle
 10
42.00000000000005
 20
109.9
 30
0.0
 40
4.75
  0
CIRCLE
  5
10B75
330
DE84
100
AcDbEntity
  8
0
100
AcDbCircle
 10
41.98298563329825
 20
109.7596032169866
 30
0.0
 40
3.5
  0
CIRCLE
  5
10B76
330
DE84
100
AcDbEntity
  8
0
100
AcDbCircle
 10
26.00000000000006
 20
109.9
 30
0.0
 40
3.5
  0
ARC
  5
10B77
330
DE84
100
AcDbEntity
  8
0
100
AcDbCircle
 10
66.50000000000017
 20
109.9
 30
0.0
 40
50.0
100
AcDbArc
 50
171.8903855440071
 51
188.1096144559929
  0
ARC
  5
10B78
330
DE84
100
AcDbEntity
  8
0
100
AcDbCircle
 10
26.00000000000006
 20
109.9
 30
0.0
 40
8.0
100
AcDbArc
 50
147.9521905958736
 51
212.0478094041264
  0
ARC
  5
10B79
330
DE84
100
AcDbEntity
  8
0
100
AcDbCircle
 10
26.00000000000006
 20
109.9
 30
0.0
 40
7.2
100
AcDbArc
 50
150.9256799854444
 51
209.0743200145556
  0
CIRCLE
  5
10B7A
330
DE84
100
AcDbEntity
  8
0
100
AcDbCircle
 10
26.00000000000006
 20
109.9
 30
0.0
 40
4.75
  0
LINE
  5
10B7B
330
DE84
100
AcDbEntity
  8
0
100
AcDbLine
 10
17.00000000000005
 20
118.1
 30
0.0
 11
17.00000000000005
 21
101.7
 31
0.0
  0
ARC
  5
10B7C
330
DE84
100
AcDbEntity
  8
0
100
AcDbCircle
 10
26.00000000000006
 20
109.9
 30
0.0
 40
8.0
100
AcDbArc
 50
327.9521905958735
 51
32.04780940412642
  0
ARC
  5
10B7D
330
DE84
100
AcDbEntity
  8
0
100
AcDbCircle
 10
26.00000000000006
 20
109.9
 30
0.0
 40
7.2
100
AcDbArc
 50
330.9256799854444
 51
29.07432001455561
  0
ELLIPSE
  5
10B7E
330
DE84
100
AcDbEntity
  8
0
100
AcDbEllipse
 10
40.00000000000006
 20
109.9
 30
0.0
 11
10.0
 21
0.0
 31
0.0
210
0.0
220
0.0
230
1.0
 40
0.8999999999999998
 41
4.712388980384689
 42
5.446897285208924
  0
ARC
  5
10B7F
330
DE84
100
AcDbEntity
  8
0
100
AcDbCircle
 10
26.00000000000006
 20
109.9
 30
0.0
 40
7.2
100
AcDbArc
 50
240.9256799854435
 51
299.0743200145565
  0
ARC
  5
10B80
330
DE84
100
AcDbEntity
  8
0
100
AcDbCircle
 10
26.00000000000006
 20
109.9
 30
0.0
 40
8.0
100
AcDbArc
 50
237.9521905958745
 51
302.0478094041255
  0
LINE
  5
10B81
330
DE84
100
AcDbEntity
  8
0
100
AcDbLine
 10
17.80000000000012
 20
100.9
 30
0.0
 11
39.2000000000001
 21
100.9
 31
0.0
  0
CIRCLE
  5
10B82
330
DE84
100
AcDbEntity
  8
0
100
AcDbCircle
 10
19.98959235991452
 20
103.8895923599143
 30
0.0
 40
0.9
  0
ARC
  5
10B83
330
DE84
100
AcDbEntity
  8
0
100
AcDbCircle
 10
19.98959235991452
 20
103.8895923599143
 30
0.0
 40
1.25
100
AcDbArc
 50
135.0000000000004
 51
315.0000000000005
  0
ARC
  5
10B84
330
DE84
100
AcDbEntity
  8
0
100
AcDbCircle
 10
17.80000000000012
 20
101.7
 30
0.0
 40
0.8
100
AcDbArc
 50
180.0
 51
270.0
  0
CIRCLE
  5
10B85
330
DE84
100
AcDbEntity
  8
0
100
AcDbCircle
 10
19.98959235991452
 20
103.8895923599143
 30
0.0
 40
0.525
  0
LINE
  5
10B86
330
DE84
100
AcDbEntity
  8
0
100
AcDbLine
 10
20.87347583639763
 20
103.0057088834311
 30
0.0
 11
21.30815482454915
 21
103.4403878715826
 31
0.0
  0
ARC
  5
10B87
330
DE84
100
AcDbEntity
  8
0
100
AcDbCircle
 10
22.0152616057357
 20
102.733281090396
 30
0.0
 40
1.0
100
AcDbArc
 50
60.92567998544349
 51
135.0000000000004
  0
ARC
  5
10B88
330
DE84
100
AcDbEntity
  8
0
100
AcDbCircle
 10
21.38354755580047
 20
102.5258311091729
 30
0.0
 40
0.7000000000000001
100
AcDbArc
 50
57.95219059587449
 51
135.0000000000004
  0
ARC
  5
10B89
330
DE84
100
AcDbEntity
  8
0
100
AcDbCircle
 10
18.83328109039615
 20
105.9152616057355
 30
0.0
 40
1.0
100
AcDbArc
 50
315.0000000000005
 51
29.07432001455816
  0
ARC
  5
10B8A
330
DE84
100
AcDbEntity
  8
0
100
AcDbCircle
 10
18.62583110917302
 20
105.2835475558004
 30
0.0
 40
0.7000000000000001
100
AcDbArc
 50
315.0000000000005
 51
32.04780940412642
  0
LINE
  5
10B8B
330
DE84
100
AcDbEntity
  8
0
100
AcDbLine
 10
19.1057088834313
 20
104.7734758363975
 30
0.0
 11
19.54038787158271
 21
105.208154824549
 31
0.0
  0
ARC
  5
10B8C
330
DE84
100
AcDbEntity
  8
0
100
AcDbCircle
 10
37.38354755580048
 20
102.5258311091729
 30
0.0
 40
0.7000000000000001
100
AcDbArc
 50
57.95219059587449
 51
135.0000000000004
  0
LINE
  5
10B8D
330
DE84
100
AcDbEntity
  8
0
100
AcDbLine
 10
36.87347583639763
 20
103.0057088834311
 30
0.0
 11
37.30815482454915
 21
103.4403878715826
 31
0.0
  0
ARC
  5
10B8E
330
DE84
100
AcDbEntity
  8
0
100
AcDbCircle
 10
35.98959235991453
 20
103.8895923599143
 30
0.0
 40
1.25
100
AcDbArc
 50
135.0000000000004
 51
315.0000000000005
  0
CIRCLE
  5
10B8F
330
DE84
100
AcDbEntity
  8
0
100
AcDbCircle
 10
35.98959235991453
 20
103.8895923599143
 30
0.0
 40
0.9
  0
CIRCLE
  5
10B90
330
DE84
100
AcDbEntity
  8
0
100
AcDbCircle
 10
32.01040764008582
 20
103.8895923599143
 30
0.0
 40
0.9
  0
ARC
  5
10B91
330
DE84
100
AcDbEntity
  8
0
100
AcDbCircle
 10
32.01040764008582
 20
103.8895923599143
 30
0.0
 40
1.25
100
AcDbArc
 50
224.9999999999996
 51
44.99999999999956
  0
ARC
  5
10B92
330
DE84
100
AcDbEntity
  8
0
100
AcDbCircle
 10
30.61645244419975
 20
102.5258311091729
 30
0.0
 40
0.7000000000000001
100
AcDbArc
 50
44.99999999999956
 51
122.0478094041255
  0
ARC
  5
10B93
330
DE84
100
AcDbEntity
  8
0
100
AcDbCircle
 10
29.98473839426452
 20
102.733281090396
 30
0.0
 40
1.0
100
AcDbArc
 50
44.99999999999956
 51
119.0743200145565
  0
CIRCLE
  5
10B94
330
DE84
100
AcDbEntity
  8
0
100
AcDbCircle
 10
35.98959235991453
 20
103.8895923599143
 30
0.0
 40
0.525
  0
LINE
  5
10B95
330
DE84
100
AcDbEntity
  8
0
100
AcDbLine
 10
31.1265241636026
 20
103.0057088834312
 30
0.0
 11
30.6918451754512
 21
103.4403878715826
 31
0.0
  0
CIRCLE
  5
10B96
330
DE84
100
AcDbEntity
  8
0
100
AcDbCircle
 10
32.01040764008582
 20
103.8895923599143
 30
0.0
 40
0.525
  0
LINE
  5
10B97
330
DE84
100
AcDbEntity
  8
0
100
AcDbLine
 10
35.10570888343131
 20
104.7734758363975
 30
0.0
 11
35.54038787158271
 21
105.208154824549
 31
0.0
  0
ARC
  5
10B98
330
DE84
100
AcDbEntity
  8
0
100
AcDbCircle
 10
34.62583110917291
 20
105.2835475558004
 30
0.0
 40
0.7000000000000001
100
AcDbArc
 50
315.0000000000005
 51
32.04780940412642
  0
ARC
  5
10B99
330
DE84
100
AcDbEntity
  8
0
100
AcDbCircle
 10
34.83328109039616
 20
105.9152616057355
 30
0.0
 40
1.0
100
AcDbArc
 50
315.0000000000005
 51
29.07432001455816
  0
LINE
  5
10B9A
330
DE84
100
AcDbEntity
  8
0
100
AcDbLine
 10
32.89429111656892
 20
104.7734758363975
 30
0.0
 11
32.45961212841752
 21
105.208154824549
 31
0.0
  0
ARC
  5
10B9B
330
DE84
100
AcDbEntity
  8
0
100
AcDbCircle
 10
33.16671890960407
 20
105.9152616057355
 30
0.0
 40
1.0
100
AcDbArc
 50
150.9256799854444
 51
224.9999999999996
  0
ARC
  5
10B9C
330
DE84
100
AcDbEntity
  8
0
100
AcDbCircle
 10
33.37416889082732
 20
105.2835475558004
 30
0.0
 40
0.7000000000000001
100
AcDbArc
 50
147.9521905958736
 51
224.9999999999996
  0
CIRCLE
  5
10B9D
330
DE84
100
AcDbEntity
  8
0
100
AcDbCircle
 10
48.01040764008582
 20
103.8895923599143
 30
0.0
 40
0.9
  0
ARC
  5
10B9E
330
DE84
100
AcDbEntity
  8
0
100
AcDbCircle
 10
48.01040764008582
 20
103.8895923599143
 30
0.0
 40
1.25
100
AcDbArc
 50
224.9999999999996
 51
44.99999999999956
  0
ARC
  5
10B9F
330
DE84
100
AcDbEntity
  8
0
100
AcDbCircle
 10
42.00000000000005
 20
109.9
 30
0.0
 40
7.2
100
AcDbArc
 50
240.9256799854435
 51
299.0743200145565
  0
ARC
  5
10BA0
330
DE84
100
AcDbEntity
  8
0
100
AcDbCircle
 10
42.00000000000005
 20
109.9
 30
0.0
 40
8.0
100
AcDbArc
 50
237.9521905958745
 51
302.0478094041255
  0
ARC
  5
10BA1
330
DE84
100
AcDbEntity
  8
0
100
AcDbCircle
 10
38.0152616057357
 20
102.733281090396
 30
0.0
 40
1.0
100
AcDbArc
 50
60.92567998544349
 51
135.0000000000004
  0
ARC
  5
10BA2
330
DE84
100
AcDbEntity
  8
0
100
AcDbCircle
 10
39.2000000000001
 20
100.1000000000001
 30
0.0
 40
0.8
100
AcDbArc
 50
0.0
 51
90.0
  0
CIRCLE
  5
10BA3
330
DE84
100
AcDbEntity
  8
0
100
AcDbCircle
 10
48.01040764008582
 20
103.8895923599143
 30
0.0
 40
0.525
  0
LINE
  5
10BA4
330
DE84
100
AcDbEntity
  8
0
100
AcDbLine
 10
47.12652416360259
 20
103.0057088834312
 30
0.0
 11
46.69184517545119
 21
103.4403878715826
 31
0.0
  0
ARC
  5
10BA5
330
DE84
100
AcDbEntity
  8
0
100
AcDbCircle
 10
46.61645244419974
 20
102.5258311091729
 30
0.0
 40
0.7000000000000001
100
AcDbArc
 50
44.99999999999956
 51
122.0478094041255
  0
ARC
  5
10BA6
330
DE84
100
AcDbEntity
  8
0
100
AcDbCircle
 10
45.98473839426463
 20
102.733281090396
 30
0.0
 40
1.0
100
AcDbArc
 50
44.99999999999956
 51
119.0743200145565
  0
ARC
  5
10BA7
330
DE84
100
AcDbEntity
  8
0
100
AcDbCircle
 10
49.16671890960407
 20
105.9152616057355
 30
0.0
 40
1.0
100
AcDbArc
 50
150.9256799854444
 51
224.9999999999996
  0
ARC
  5
10BA8
330
DE84
100
AcDbEntity
  8
0
100
AcDbCircle
 10
49.37416889082732
 20
105.2835475558004
 30
0.0
 40
0.7000000000000001
100
AcDbArc
 50
147.9521905958736
 51
224.9999999999996
  0
LINE
  5
10BA9
330
DE84
100
AcDbEntity
  8
0
100
AcDbLine
 10
48.89429111656892
 20
104.7734758363975
 30
0.0
 11
48.45961212841752
 21
105.208154824549
 31
0.0
  0
ELLIPSE
  5
10BAA
330
DE84
100
AcDbEntity
  8
0
100
AcDbEllipse
 10
17.7000000000001
 20
118.9374610186689
 30
0.0
 11
0.0
 21
0.609035960735514
 31
0.0
210
0.0
220
0.0
230
1.0
 40
0.4925817510639261
 41
3.141592653589793
 42
4.712388980384689
  0
ARC
  5
10BAB
330
DE84
100
AcDbEntity
  8
0
100
AcDbCircle
 10
26.00000000000006
 20
109.9
 30
0.0
 40
7.2
100
AcDbArc
 50
60.92567998544349
 51
119.0743200145565
  0
ARC
  5
10BAC
330
DE84
100
AcDbEntity
  8
0
100
AcDbCircle
 10
26.00000000000006
 20
109.9
 30
0.0
 40
8.0
100
AcDbArc
 50
57.95219059587449
 51
122.0478094041255
  0
ARC
  5
10BAD
330
DE84
100
AcDbEntity
  8
0
100
AcDbCircle
 10
17.80000000000012
 20
118.1
 30
0.0
 40
0.8
100
AcDbArc
 50
95.21590857045589
 51
180.0
  0
ARC
  5
10BAE
330
DE84
100
AcDbEntity
  8
0
100
AcDbCircle
 10
18.30000000000012
 20
119.6
 30
0.0
 40
0.3
100
AcDbArc
 50
90.0
 51
180.0
  0
CIRCLE
  5
10BAF
330
DE84
100
AcDbEntity
  8
0
100
AcDbCircle
 10
19.98959235991441
 20
115.9104076400856
 30
0.0
 40
0.525
  0
LINE
  5
10BB0
330
DE84
100
AcDbEntity
  8
0
100
AcDbLine
 10
20.87347583639763
 20
116.7942911165688
 30
0.0
 11
21.30815482454904
 21
116.3596121284173
 31
0.0
  0
ARC
  5
10BB1
330
DE84
100
AcDbEntity
  8
0
100
AcDbCircle
 10
17.7000000000001
 20
119.1954451150103
 30
0.0
 40
0.3
100
AcDbArc
 50
275.215908570456
 51
0.0
  0
LINE
  5
10BB2
330
DE84
100
AcDbEntity
  8
0
100
AcDbLine
 10
19.1057088834313
 20
115.0265241636025
 30
0.0
 11
19.54038787158271
 21
114.591845175451
 31
0.0
  0
ARC
  5
10BB3
330
DE84
100
AcDbEntity
  8
0
100
AcDbCircle
 10
18.62583110917291
 20
114.5164524441996
 30
0.0
 40
0.7000000000000001
100
AcDbArc
 50
327.9521905958735
 51
44.99999999999956
  0
ARC
  5
10BB4
330
DE84
100
AcDbEntity
  8
0
100
AcDbCircle
 10
18.83328109039615
 20
113.8847383942645
 30
0.0
 40
1.0
100
AcDbArc
 50
330.9256799854444
 51
44.99999999999956
  0
CIRCLE
  5
10BB5
330
DE84
100
AcDbEntity
  8
0
100
AcDbCircle
 10
19.98959235991441
 20
115.9104076400856
 30
0.0
 40
0.9
  0
ARC
  5
10BB6
330
DE84
100
AcDbEntity
  8
0
100
AcDbCircle
 10
19.98959235991441
 20
115.9104076400856
 30
0.0
 40
1.25
100
AcDbArc
 50
44.99999999999956
 51
224.9999999999996
  0
ARC
  5
10BB7
330
DE84
100
AcDbEntity
  8
0
100
AcDbCircle
 10
22.01526160573559
 20
117.066718909604
 30
0.0
 40
1.0
100
AcDbArc
 50
224.9999999999996
 51
299.0743200145565
  0
ARC
  5
10BB8
330
DE84
100
AcDbEntity
  8
0
100
AcDbCircle
 10
21.38354755580047
 20
117.2741688908272
 30
0.0
 40
0.7000000000000001
100
AcDbArc
 50
224.9999999999996
 51
302.0478094041255
  0
LINE
  5
10BB9
330
DE84
100
AcDbEntity
  8
0
100
AcDbLine
 10
18.00000000000006
 20
119.6
 30
0.0
 11
18.00000000000006
 21
118.9374610186688
 31
0.0
  0
ARC
  5
10BBA
330
DE84
100
AcDbEntity
  8
0
100
AcDbCircle
 10
37.38354755580048
 20
117.2741688908272
 30
0.0
 40
0.7000000000000001
100
AcDbArc
 50
224.9999999999996
 51
302.0478094041255
  0
LINE
  5
10BBB
330
DE84
100
AcDbEntity
  8
0
100
AcDbLine
 10
36.87347583639763
 20
116.7942911165688
 30
0.0
 11
37.30815482454904
 21
116.3596121284173
 31
0.0
  0
ARC
  5
10BBC
330
DE84
100
AcDbEntity
  8
0
100
AcDbCircle
 10
35.98959235991441
 20
115.9104076400856
 30
0.0
 40
1.25
100
AcDbArc
 50
44.99999999999956
 51
224.9999999999996
  0
ARC
  5
10BBD
330
DE84
100
AcDbEntity
  8
0
100
AcDbCircle
 10
30.61645244419975
 20
117.2741688908272
 30
0.0
 40
0.7000000000000001
100
AcDbArc
 50
237.9521905958745
 51
315.0000000000005
  0
ARC
  5
10BBE
330
DE84
100
AcDbEntity
  8
0
100
AcDbCircle
 10
29.98473839426452
 20
117.066718909604
 30
0.0
 40
1.0
100
AcDbArc
 50
240.9256799854435
 51
315.0000000000005
  0
CIRCLE
  5
10BBF
330
DE84
100
AcDbEntity
  8
0
100
AcDbCircle
 10
35.98959235991441
 20
115.9104076400856
 30
0.0
 40
0.525
  0
LINE
  5
10BC0
330
DE84
100
AcDbEntity
  8
0
100
AcDbLine
 10
35.10570888343119
 20
115.0265241636025
 30
0.0
 11
35.54038787158271
 21
114.591845175451
 31
0.0
  0
ARC
  5
10BC1
330
DE84
100
AcDbEntity
  8
0
100
AcDbCircle
 10
34.62583110917291
 20
114.5164524441996
 30
0.0
 40
0.7000000000000001
100
AcDbArc
 50
327.9521905958735
 51
44.99999999999956
  0
ARC
  5
10BC2
330
DE84
100
AcDbEntity
  8
0
100
AcDbCircle
 10
34.83328109039616
 20
113.8847383942645
 30
0.0
 40
1.0
100
AcDbArc
 50
330.9256799854444
 51
44.99999999999956
  0
CIRCLE
  5
10BC3
330
DE84
100
AcDbEntity
  8
0
100
AcDbCircle
 10
35.98959235991441
 20
115.9104076400856
 30
0.0
 40
0.9
  0
CIRCLE
  5
10BC4
330
DE84
100
AcDbEntity
  8
0
100
AcDbCircle
 10
32.01040764008582
 20
115.9104076400857
 30
0.0
 40
0.525
  0
LINE
  5
10BC5
330
DE84
100
AcDbEntity
  8
0
100
AcDbLine
 10
31.1265241636026
 20
116.7942911165689
 30
0.0
 11
30.69184517545108
 21
116.3596121284174
 31
0.0
  0
ARC
  5
10BC6
330
DE84
100
AcDbEntity
  8
0
100
AcDbCircle
 10
33.16671890960407
 20
113.8847383942645
 30
0.0
 40
1.0
100
AcDbArc
 50
135.0000000000004
 51
209.0743200145581
  0
ARC
  5
10BC7
330
DE84
100
AcDbEntity
  8
0
100
AcDbCircle
 10
33.37416889082732
 20
114.5164524441997
 30
0.0
 40
0.7000000000000001
100
AcDbArc
 50
135.0000000000004
 51
212.0478094041264
  0
LINE
  5
10BC8
330
DE84
100
AcDbEntity
  8
0
100
AcDbLine
 10
32.89429111656892
 20
115.0265241636025
 30
0.0
 11
32.45961212841752
 21
114.5918451754511
 31
0.0
  0
CIRCLE
  5
10BC9
330
DE84
100
AcDbEntity
  8
0
100
AcDbCircle
 10
32.01040764008582
 20
115.9104076400857
 30
0.0
 40
0.9
  0
ARC
  5
10BCA
330
DE84
100
AcDbEntity
  8
0
100
AcDbCircle
 10
32.01040764008582
 20
115.9104076400857
 30
0.0
 40
1.25
100
AcDbArc
 50
315.0000000000005
 51
135.0000000000004
  0
ARC
  5
10BCB
330
DE84
100
AcDbEntity
  8
0
100
AcDbCircle
 10
42.00000000000005
 20
109.9
 30
0.0
 40
7.2
100
AcDbArc
 50
60.92567998544349
 51
119.0743200145565
  0
ARC
  5
10BCC
330
DE84
100
AcDbEntity
  8
0
100
AcDbCircle
 10
42.00000000000005
 20
109.9
 30
0.0
 40
8.0
100
AcDbArc
 50
57.95219059587449
 51
122.0478094041255
  0
ARC
  5
10BCD
330
DE84
100
AcDbEntity
  8
0
100
AcDbCircle
 10
38.01526160573559
 20
117.066718909604
 30
0.0
 40
1.0
100
AcDbArc
 50
224.9999999999996
 51
299.0743200145565
  0
CIRCLE
  5
10BCE
330
DE84
100
AcDbEntity
  8
0
100
AcDbCircle
 10
48.01040764008582
 20
115.9104076400857
 30
0.0
 40
0.525
  0
ARC
  5
10BCF
330
DE84
100
AcDbEntity
  8
0
100
AcDbCircle
 10
46.61645244419974
 20
117.2741688908272
 30
0.0
 40
0.7000000000000001
100
AcDbArc
 50
237.9521905958745
 51
315.0000000000005
  0
ARC
  5
10BD0
330
DE84
100
AcDbEntity
  8
0
100
AcDbCircle
 10
45.98473839426463
 20
117.066718909604
 30
0.0
 40
1.0
100
AcDbArc
 50
240.9256799854435
 51
315.0000000000005
  0
LINE
  5
10BD1
330
DE84
100
AcDbEntity
  8
0
100
AcDbLine
 10
47.12652416360259
 20
116.7942911165689
 30
0.0
 11
46.69184517545107
 21
116.3596121284174
 31
0.0
  0
ARC
  5
10BD2
330
DE84
100
AcDbEntity
  8
0
100
AcDbCircle
 10
49.16671890960407
 20
113.8847383942645
 30
0.0
 40
1.0
100
AcDbArc
 50
135.0000000000004
 51
209.0743200145581
  0
LINE
  5
10BD3
330
DE84
100
AcDbEntity
  8
0
100
AcDbLine
 10
48.89429111656892
 20
115.0265241636025
 30
0.0
 11
48.45961212841752
 21
114.5918451754511
 31
0.0
  0
ARC
  5
10BD4
330
DE84
100
AcDbEntity
  8
0
100
AcDbCircle
 10
49.37416889082732
 20
114.5164524441997
 30
0.0
 40
0.7000000000000001
100
AcDbArc
 50
135.0000000000004
 51
212.0478094041264
  0
CIRCLE
  5
10BD5
330
DE84
100
AcDbEntity
  8
0
100
AcDbCircle
 10
48.01040764008582
 20
115.9104076400857
 30
0.0
 40
0.9
  0
ARC
  5
10BD6
330
DE84
100
AcDbEntity
  8
0
100
AcDbCircle
 10
48.01040764008582
 20
115.9104076400857
 30
0.0
 40
1.25
100
AcDbArc
 50
315.0000000000005
 51
135.0000000000004
  0
ARC
  5
10BD7
330
DE84
100
AcDbEntity
  8
0
100
AcDbCircle
 10
33.50000000000006
 20
109.9
 30
0.0
 40
50.0
100
AcDbArc
 50
351.8903855440071
 51
8.109614455992897
  0
ARC
  5
10BD8
330
DE84
100
AcDbEntity
  8
0
100
AcDbCircle
 10
74.00000000000017
 20
109.9
 30
0.0
 40
8.0
100
AcDbArc
 50
327.9521905958735
 51
32.04780940412642
  0
ARC
  5
10BD9
330
DE84
100
AcDbEntity
  8
0
100
AcDbCircle
 10
74.00000000000017
 20
109.9
 30
0.0
 40
7.2
100
AcDbArc
 50
330.9256799854444
 51
29.07432001455561
  0
LINE
  5
10BDA
330
DE84
100
AcDbEntity
  8
0
100
AcDbLine
 10
83.00000000000016
 20
118.1
 30
0.0
 11
83.00000000000016
 21
101.7
 31
0.0
  0
CIRCLE
  5
10BDB
330
DE84
100
AcDbEntity
  8
0
100
AcDbCircle
 10
74.00000000000017
 20
109.9
 30
0.0
 40
4.75
  0
CIRCLE
  5
10BDC
330
DE84
100
AcDbEntity
  8
0
100
AcDbCircle
 10
74.00000000000017
 20
109.9
 30
0.0
 40
3.5
  0
ARC
  5
10BDD
330
DE84
100
AcDbEntity
  8
0
100
AcDbCircle
 10
58.00000000000017
 20
109.9
 30
0.0
 40
7.2
100
AcDbArc
 50
330.9256799854444
 51
29.07432001455561
  0
ARC
  5
10BDE
330
DE84
100
AcDbEntity
  8
0
100
AcDbCircle
 10
58.00000000000017
 20
109.9
 30
0.0
 40
8.0
100
AcDbArc
 50
327.9521905958735
 51
32.04780940412642
  0
ARC
  5
10BDF
330
DE84
100
AcDbEntity
  8
0
100
AcDbCircle
 10
74.00000000000017
 20
109.9
 30
0.0
 40
7.2
100
AcDbArc
 50
150.9256799854444
 51
209.0743200145556
  0
ARC
  5
10BE0
330
DE84
100
AcDbEntity
  8
0
100
AcDbCircle
 10
74.00000000000017
 20
109.9
 30
0.0
 40
8.0
100
AcDbArc
 50
147.9521905958736
 51
212.0478094041264
  0
ARC
  5
10BE1
330
DE84
100
AcDbEntity
  8
0
100
AcDbCircle
 10
58.00000000000017
 20
109.9
 30
0.0
 40
7.2
100
AcDbArc
 50
150.9256799854444
 51
209.0743200145556
  0
CIRCLE
  5
10BE2
330
DE84
100
AcDbEntity
  8
0
100
AcDbCircle
 10
58.00000000000017
 20
109.9
 30
0.0
 40
4.75
  0
CIRCLE
  5
10BE3
330
DE84
100
AcDbEntity
  8
0
100
AcDbCircle
 10
58.00000000000017
 20
109.9
 30
0.0
 40
3.5
  0
ELLIPSE
  5
10BE4
330
DE84
100
AcDbEntity
  8
0
100
AcDbEllipse
 10
60.00000000000006
 20
109.9
 30
0.0
 11
-10.0
 21
0.0
 31
0.0
210
0.0
220
0.0
230
-1.0
 40
0.8999999999999998
 41
4.712388980384689
 42
5.446897285208924
  0
ARC
  5
10BE5
330
DE84
100
AcDbEntity
  8
0
100
AcDbCircle
 10
74.00000000000017
 20
109.9
 30
0.0
 40
7.2
100
AcDbArc
 50
240.9256799854435
 51
299.0743200145565
  0
ARC
  5
10BE6
330
DE84
100
AcDbEntity
  8
0
100
AcDbCircle
 10
74.00000000000017
 20
109.9
 30
0.0
 40
8.0
100
AcDbArc
 50
237.9521905958745
 51
302.0478094041255
  0
LINE
  5
10BE7
330
DE84
100
AcDbEntity
  8
0
100
AcDbLine
 10
60.80000000000012
 20
100.9
 30
0.0
 11
82.20000000000011
 21
100.9
 31
0.0
  0
CIRCLE
  5
10BE8
330
DE84
100
AcDbEntity
  8
0
100
AcDbCircle
 10
64.01040764008581
 20
103.8895923599143
 30
0.0
 40
0.525
  0
CIRCLE
  5
10BE9
330
DE84
100
AcDbEntity
  8
0
100
AcDbCircle
 10
64.01040764008581
 20
103.8895923599143
 30
0.0
 40
0.9
  0
ARC
  5
10BEA
330
DE84
100
AcDbEntity
  8
0
100
AcDbCircle
 10
64.01040764008581
 20
103.8895923599143
 30
0.0
 40
1.25
100
AcDbArc
 50
224.9999999999996
 51
44.99999999999956
  0
CIRCLE
  5
10BEB
330
DE84
100
AcDbEntity
  8
0
100
AcDbCircle
 10
51.98959235991452
 20
103.8895923599143
 30
0.0
 40
0.9
  0
ARC
  5
10BEC
330
DE84
100
AcDbEntity
  8
0
100
AcDbCircle
 10
51.98959235991452
 20
103.8895923599143
 30
0.0
 40
1.25
100
AcDbArc
 50
135.0000000000004
 51
315.0000000000005
  0
ARC
  5
10BED
330
DE84
100
AcDbEntity
  8
0
100
AcDbCircle
 10
58.00000000000017
 20
109.9
 30
0.0
 40
7.2
100
AcDbArc
 50
240.9256799854435
 51
299.0743200145565
  0
ARC
  5
10BEE
330
DE84
100
AcDbEntity
  8
0
100
AcDbCircle
 10
58.00000000000017
 20
109.9
 30
0.0
 40
8.0
100
AcDbArc
 50
237.9521905958745
 51
302.0478094041255
  0
ARC
  5
10BEF
330
DE84
100
AcDbEntity
  8
0
100
AcDbCircle
 10
54.0152616057357
 20
102.733281090396
 30
0.0
 40
1.0
100
AcDbArc
 50
60.92567998544349
 51
135.0000000000004
  0
CIRCLE
  5
10BF0
330
DE84
100
AcDbEntity
  8
0
100
AcDbCircle
 10
51.98959235991452
 20
103.8895923599143
 30
0.0
 40
0.525
  0
LINE
  5
10BF1
330
DE84
100
AcDbEntity
  8
0
100
AcDbLine
 10
52.87347583639763
 20
103.0057088834311
 30
0.0
 11
53.30815482454915
 21
103.4403878715826
 31
0.0
  0
ARC
  5
10BF2
330
DE84
100
AcDbEntity
  8
0
100
AcDbCircle
 10
53.38354755580048
 20
102.5258311091729
 30
0.0
 40
0.7000000000000001
100
AcDbArc
 50
57.95219059587449
 51
135.0000000000004
  0
ARC
  5
10BF3
330
DE84
100
AcDbEntity
  8
0
100
AcDbCircle
 10
62.61645244419975
 20
102.5258311091729
 30
0.0
 40
0.7000000000000001
100
AcDbArc
 50
44.99999999999956
 51
122.0478094041255
  0
LINE
  5
10BF4
330
DE84
100
AcDbEntity
  8
0
100
AcDbLine
 10
63.12652416360259
 20
103.0057088834312
 30
0.0
 11
62.69184517545119
 21
103.4403878715826
 31
0.0
  0
ARC
  5
10BF5
330
DE84
100
AcDbEntity
  8
0
100
AcDbCircle
 10
61.98473839426464
 20
102.733281090396
 30
0.0
 40
1.0
100
AcDbArc
 50
44.99999999999956
 51
119.0743200145565
  0
ARC
  5
10BF6
330
DE84
100
AcDbEntity
  8
0
100
AcDbCircle
 10
60.80000000000012
 20
100.1000000000001
 30
0.0
 40
0.8
100
AcDbArc
 50
90.0
 51
180.0
  0
ARC
  5
10BF7
330
DE84
100
AcDbEntity
  8
0
100
AcDbCircle
 10
50.83328109039616
 20
105.9152616057355
 30
0.0
 40
1.0
100
AcDbArc
 50
315.0000000000005
 51
29.07432001455816
  0
LINE
  5
10BF8
330
DE84
100
AcDbEntity
  8
0
100
AcDbLine
 10
51.1057088834313
 20
104.7734758363975
 30
0.0
 11
51.5403878715827
 21
105.208154824549
 31
0.0
  0
ARC
  5
10BF9
330
DE84
100
AcDbEntity
  8
0
100
AcDbCircle
 10
50.62583110917302
 20
105.2835475558004
 30
0.0
 40
0.7000000000000001
100
AcDbArc
 50
315.0000000000005
 51
32.04780940412642
  0
ARC
  5
10BFA
330
DE84
100
AcDbEntity
  8
0
100
AcDbCircle
 10
67.98959235991453
 20
103.8895923599143
 30
0.0
 40
1.25
100
AcDbArc
 50
135.0000000000004
 51
315.0000000000005
  0
CIRCLE
  5
10BFB
330
DE84
100
AcDbEntity
  8
0
100
AcDbCircle
 10
67.98959235991453
 20
103.8895923599143
 30
0.0
 40
0.9
  0
ARC
  5
10BFC
330
DE84
100
AcDbEntity
  8
0
100
AcDbCircle
 10
70.0152616057357
 20
102.733281090396
 30
0.0
 40
1.0
100
AcDbArc
 50
60.92567998544349
 51
135.0000000000004
  0
ARC
  5
10BFD
330
DE84
100
AcDbEntity
  8
0
100
AcDbCircle
 10
69.38354755580047
 20
102.5258311091729
 30
0.0
 40
0.7000000000000001
100
AcDbArc
 50
57.95219059587449
 51
135.0000000000004
  0
LINE
  5
10BFE
330
DE84
100
AcDbEntity
  8
0
100
AcDbLine
 10
68.87347583639763
 20
103.0057088834311
 30
0.0
 11
69.30815482454915
 21
103.4403878715826
 31
0.0
  0
CIRCLE
  5
10BFF
330
DE84
100
AcDbEntity
  8
0
100
AcDbCircle
 10
67.98959235991453
 20
103.8895923599143
 30
0.0
 40
0.525
  0
ARC
  5
10C00
330
DE84
100
AcDbEntity
  8
0
100
AcDbCircle
 10
66.62583110917302
 20
105.2835475558004
 30
0.0
 40
0.7000000000000001
100
AcDbArc
 50
315.0000000000005
 51
32.04780940412642
  0
LINE
  5
10C01
330
DE84
100
AcDbEntity
  8
0
100
AcDbLine
 10
67.10570888343131
 20
104.7734758363975
 30
0.0
 11
67.54038787158271
 21
105.208154824549
 31
0.0
  0
ARC
  5
10C02
330
DE84
100
AcDbEntity
  8
0
100
AcDbCircle
 10
66.83328109039615
 20
105.9152616057355
 30
0.0
 40
1.0
100
AcDbArc
 50
315.0000000000005
 51
29.07432001455816
  0
ARC
  5
10C03
330
DE84
100
AcDbEntity
  8
0
100
AcDbCircle
 10
65.16671890960407
 20
105.9152616057355
 30
0.0
 40
1.0
100
AcDbArc
 50
150.9256799854444
 51
224.9999999999996
  0
ARC
  5
10C04
330
DE84
100
AcDbEntity
  8
0
100
AcDbCircle
 10
65.37416889082732
 20
105.2835475558004
 30
0.0
 40
0.7000000000000001
100
AcDbArc
 50
147.9521905958736
 51
224.9999999999996
  0
LINE
  5
10C05
330
DE84
100
AcDbEntity
  8
0
100
AcDbLine
 10
64.89429111656892
 20
104.7734758363975
 30
0.0
 11
64.45961212841751
 21
105.208154824549
 31
0.0
  0
ARC
  5
10C06
330
DE84
100
AcDbEntity
  8
0
100
AcDbCircle
 10
80.01040764008582
 20
103.8895923599143
 30
0.0
 40
1.25
100
AcDbArc
 50
224.9999999999996
 51
44.99999999999956
  0
CIRCLE
  5
10C07
330
DE84
100
AcDbEntity
  8
0
100
AcDbCircle
 10
80.01040764008582
 20
103.8895923599143
 30
0.0
 40
0.9
  0
CIRCLE
  5
10C08
330
DE84
100
AcDbEntity
  8
0
100
AcDbCircle
 10
80.01040764008582
 20
103.8895923599143
 30
0.0
 40
0.525
  0
ARC
  5
10C09
330
DE84
100
AcDbEntity
  8
0
100
AcDbCircle
 10
82.20000000000011
 20
101.7
 30
0.0
 40
0.8
100
AcDbArc
 50
270.0
 51
0.0
  0
LINE
  5
10C0A
330
DE84
100
AcDbEntity
  8
0
100
AcDbLine
 10
79.12652416360259
 20
103.0057088834312
 30
0.0
 11
78.69184517545119
 21
103.4403878715826
 31
0.0
  0
ARC
  5
10C0B
330
DE84
100
AcDbEntity
  8
0
100
AcDbCircle
 10
78.61645244419975
 20
102.5258311091729
 30
0.0
 40
0.7000000000000001
100
AcDbArc
 50
44.99999999999956
 51
122.0478094041255
  0
ARC
  5
10C0C
330
DE84
100
AcDbEntity
  8
0
100
AcDbCircle
 10
77.98473839426463
 20
102.733281090396
 30
0.0
 40
1.0
100
AcDbArc
 50
44.99999999999956
 51
119.0743200145565
  0
ARC
  5
10C0D
330
DE84
100
AcDbEntity
  8
0
100
AcDbCircle
 10
81.16671890960407
 20
105.9152616057355
 30
0.0
 40
1.0
100
AcDbArc
 50
150.9256799854444
 51
224.9999999999996
  0
ARC
  5
10C0E
330
DE84
100
AcDbEntity
  8
0
100
AcDbCircle
 10
81.37416889082732
 20
105.2835475558004
 30
0.0
 40
0.7000000000000001
100
AcDbArc
 50
147.9521905958736
 51
224.9999999999996
  0
LINE
  5
10C0F
330
DE84
100
AcDbEntity
  8
0
100
AcDbLine
 10
80.89429111656903
 20
104.7734758363975
 30
0.0
 11
80.45961212841751
 21
105.208154824549
 31
0.0
  0
ELLIPSE
  5
10C10
330
DE84
100
AcDbEntity
  8
0
100
AcDbEllipse
 10
82.30000000000012
 20
118.9374610186689
 30
0.0
 11
0.0
 21
0.609035960735514
 31
0.0
210
0.0
220
0.0
230
-1.0
 40
0.4925817510639261
 41
3.141592653589793
 42
4.712388980384689
  0
ARC
  5
10C11
330
DE84
100
AcDbEntity
  8
0
100
AcDbCircle
 10
74.00000000000017
 20
109.9
 30
0.0
 40
8.0
100
AcDbArc
 50
57.95219059587449
 51
122.0478094041255
  0
ARC
  5
10C12
330
DE84
100
AcDbEntity
  8
0
100
AcDbCircle
 10
74.00000000000017
 20
109.9
 30
0.0
 40
7.2
100
AcDbArc
 50
60.92567998544349
 51
119.0743200145565
  0
CIRCLE
  5
10C13
330
DE84
100
AcDbEntity
  8
0
100
AcDbCircle
 10
64.01040764008581
 20
115.9104076400857
 30
0.0
 40
0.525
  0
CIRCLE
  5
10C14
330
DE84
100
AcDbEntity
  8
0
100
AcDbCircle
 10
64.01040764008581
 20
115.9104076400857
 30
0.0
 40
0.9
  0
ARC
  5
10C15
330
DE84
100
AcDbEntity
  8
0
100
AcDbCircle
 10
64.01040764008581
 20
115.9104076400857
 30
0.0
 40
1.25
100
AcDbArc
 50
315.0000000000005
 51
135.0000000000004
  0
ARC
  5
10C16
330
DE84
100
AcDbEntity
  8
0
100
AcDbCircle
 10
58.00000000000017
 20
109.9
 30
0.0
 40
7.2
100
AcDbArc
 50
60.92567998544349
 51
119.0743200145565
  0
ARC
  5
10C17
330
DE84
100
AcDbEntity
  8
0
100
AcDbCircle
 10
58.00000000000017
 20
109.9
 30
0.0
 40
8.0
100
AcDbArc
 50
57.95219059587449
 51
122.0478094041255
  0
ARC
  5
10C18
330
DE84
100
AcDbEntity
  8
0
100
AcDbCircle
 10
54.0152616057357
 20
117.066718909604
 30
0.0
 40
1.0
100
AcDbArc
 50
224.9999999999996
 51
299.0743200145565
  0
CIRCLE
  5
10C19
330
DE84
100
AcDbEntity
  8
0
100
AcDbCircle
 10
51.98959235991441
 20
115.9104076400856
 30
0.0
 40
0.525
  0
LINE
  5
10C1A
330
DE84
100
AcDbEntity
  8
0
100
AcDbLine
 10
52.87347583639763
 20
116.7942911165688
 30
0.0
 11
53.30815482454903
 21
116.3596121284173
 31
0.0
  0
ARC
  5
10C1B
330
DE84
100
AcDbEntity
  8
0
100
AcDbCircle
 10
53.38354755580048
 20
117.2741688908272
 30
0.0
 40
0.7000000000000001
100
AcDbArc
 50
224.9999999999996
 51
302.0478094041255
  0
ARC
  5
10C1C
330
DE84
100
AcDbEntity
  8
0
100
AcDbCircle
 10
50.83328109039616
 20
113.8847383942645
 30
0.0
 40
1.0
100
AcDbArc
 50
330.9256799854444
 51
44.99999999999956
  0
LINE
  5
10C1D
330
DE84
100
AcDbEntity
  8
0
100
AcDbLine
 10
51.10570888343119
 20
115.0265241636025
 30
0.0
 11
51.5403878715827
 21
114.591845175451
 31
0.0
  0
ARC
  5
10C1E
330
DE84
100
AcDbEntity
  8
0
100
AcDbCircle
 10
50.62583110917291
 20
114.5164524441996
 30
0.0
 40
0.7000000000000001
100
AcDbArc
 50
327.9521905958735
 51
44.99999999999956
  0
CIRCLE
  5
10C1F
330
DE84
100
AcDbEntity
  8
0
100
AcDbCircle
 10
51.98959235991441
 20
115.9104076400856
 30
0.0
 40
0.9
  0
ARC
  5
10C20
330
DE84
100
AcDbEntity
  8
0
100
AcDbCircle
 10
51.98959235991441
 20
115.9104076400856
 30
0.0
 40
1.25
100
AcDbArc
 50
44.99999999999956
 51
224.9999999999996
  0
LINE
  5
10C21
330
DE84
100
AcDbEntity
  8
0
100
AcDbLine
 10
63.12652416360259
 20
116.7942911165689
 30
0.0
 11
62.69184517545108
 21
116.3596121284174
 31
0.0
  0
ARC
  5
10C22
330
DE84
100
AcDbEntity
  8
0
100
AcDbCircle
 10
62.61645244419975
 20
117.2741688908272
 30
0.0
 40
0.7000000000000001
100
AcDbArc
 50
237.9521905958745
 51
315.0000000000005
  0
ARC
  5
10C23
330
DE84
100
AcDbEntity
  8
0
100
AcDbCircle
 10
61.98473839426464
 20
117.066718909604
 30
0.0
 40
1.0
100
AcDbArc
 50
240.9256799854435
 51
315.0000000000005
  0
ARC
  5
10C24
330
DE84
100
AcDbEntity
  8
0
100
AcDbCircle
 10
70.0152616057357
 20
117.066718909604
 30
0.0
 40
1.0
100
AcDbArc
 50
224.9999999999996
 51
299.0743200145565
  0
ARC
  5
10C25
330
DE84
100
AcDbEntity
  8
0
100
AcDbCircle
 10
69.38354755580047
 20
117.2741688908272
 30
0.0
 40
0.7000000000000001
100
AcDbArc
 50
224.9999999999996
 51
302.0478094041255
  0
LINE
  5
10C26
330
DE84
100
AcDbEntity
  8
0
100
AcDbLine
 10
68.87347583639763
 20
116.7942911165688
 30
0.0
 11
69.30815482454903
 21
116.3596121284173
 31
0.0
  0
ARC
  5
10C27
330
DE84
100
AcDbEntity
  8
0
100
AcDbCircle
 10
66.62583110917291
 20
114.5164524441996
 30
0.0
 40
0.7000000000000001
100
AcDbArc
 50
327.9521905958735
 51
44.99999999999956
  0
LINE
  5
10C28
330
DE84
100
AcDbEntity
  8
0
100
AcDbLine
 10
67.10570888343119
 20
115.0265241636025
 30
0.0
 11
67.54038787158271
 21
114.591845175451
 31
0.0
  0
ARC
  5
10C29
330
DE84
100
AcDbEntity
  8
0
100
AcDbCircle
 10
66.83328109039615
 20
113.8847383942645
 30
0.0
 40
1.0
100
AcDbArc
 50
330.9256799854444
 51
44.99999999999956
  0
CIRCLE
  5
10C2A
330
DE84
100
AcDbEntity
  8
0
100
AcDbCircle
 10
67.98959235991441
 20
115.9104076400856
 30
0.0
 40
0.9
  0
CIRCLE
  5
10C2B
330
DE84
100
AcDbEntity
  8
0
100
AcDbCircle
 10
67.98959235991441
 20
115.9104076400856
 30
0.0
 40
0.525
  0
ARC
  5
10C2C
330
DE84
100
AcDbEntity
  8
0
100
AcDbCircle
 10
67.98959235991441
 20
115.9104076400856
 30
0.0
 40
1.25
100
AcDbArc
 50
44.99999999999956
 51
224.9999999999996
  0
ARC
  5
10C2D
330
DE84
100
AcDbEntity
  8
0
100
AcDbCircle
 10
65.16671890960407
 20
113.8847383942645
 30
0.0
 40
1.0
100
AcDbArc
 50
135.0000000000004
 51
209.0743200145581
  0
ARC
  5
10C2E
330
DE84
100
AcDbEntity
  8
0
100
AcDbCircle
 10
65.37416889082732
 20
114.5164524441997
 30
0.0
 40
0.7000000000000001
100
AcDbArc
 50
135.0000000000004
 51
212.0478094041264
  0
LINE
  5
10C2F
330
DE84
100
AcDbEntity
  8
0
100
AcDbLine
 10
64.89429111656892
 20
115.0265241636025
 30
0.0
 11
64.45961212841751
 21
114.5918451754511
 31
0.0
  0
ARC
  5
10C30
330
DE84
100
AcDbEntity
  8
0
100
AcDbCircle
 10
81.7000000000001
 20
119.6
 30
0.0
 40
0.3
100
AcDbArc
 50
0.0
 51
90.0
  0
ARC
  5
10C31
330
DE84
100
AcDbEntity
  8
0
100
AcDbCircle
 10
82.20000000000011
 20
118.1
 30
0.0
 40
0.8
100
AcDbArc
 50
0.0
 51
84.7840914295441
  0
CIRCLE
  5
10C32
330
DE84
100
AcDbEntity
  8
0
100
AcDbCircle
 10
80.01040764008582
 20
115.9104076400857
 30
0.0
 40
0.525
  0
ARC
  5
10C33
330
DE84
100
AcDbEntity
  8
0
100
AcDbCircle
 10
82.30000000000012
 20
119.1954451150103
 30
0.0
 40
0.3
100
AcDbArc
 50
180.0
 51
264.7840914295441
  0
ARC
  5
10C34
330
DE84
100
AcDbEntity
  8
0
100
AcDbCircle
 10
81.16671890960407
 20
113.8847383942645
 30
0.0
 40
1.0
100
AcDbArc
 50
135.0000000000004
 51
209.0743200145581
  0
LINE
  5
10C35
330
DE84
100
AcDbEntity
  8
0
100
AcDbLine
 10
80.89429111656892
 20
115.0265241636025
 30
0.0
 11
80.45961212841751
 21
114.5918451754511
 31
0.0
  0
ARC
  5
10C36
330
DE84
100
AcDbEntity
  8
0
100
AcDbCircle
 10
81.37416889082732
 20
114.5164524441997
 30
0.0
 40
0.7000000000000001
100
AcDbArc
 50
135.0000000000004
 51
212.0478094041264
  0
LINE
  5
10C37
330
DE84
100
AcDbEntity
  8
0
100
AcDbLine
 10
82.00000000000017
 20
119.6
 30
0.0
 11
82.00000000000017
 21
118.9374610186688
 31
0.0
  0
LINE
  5
10C38
330
DE84
100
AcDbEntity
  8
0
100
AcDbLine
 10
79.12652416360259
 20
116.7942911165689
 30
0.0
 11
78.69184517545107
 21
116.3596121284174
 31
0.0
  0
ARC
  5
10C39
330
DE84
100
AcDbEntity
  8
0
100
AcDbCircle
 10
78.61645244419975
 20
117.2741688908272
 30
0.0
 40
0.7000000000000001
100
AcDbArc
 50
237.9521905958745
 51
315.0000000000005
  0
ARC
  5
10C3A
330
DE84
100
AcDbEntity
  8
0
100
AcDbCircle
 10
77.98473839426463
 20
117.066718909604
 30
0.0
 40
1.0
100
AcDbArc
 50
240.9256799854435
 51
315.0000000000005
  0
CIRCLE
  5
10C3B
330
DE84
100
AcDbEntity
  8
0
100
AcDbCircle
 10
80.01040764008582
 20
115.9104076400857
 30
0.0
 40
0.9
  0
ARC
  5
10C3C
330
DE84
100
AcDbEntity
  8
0
100
AcDbCircle
 10
80.01040764008582
 20
115.9104076400857
 30
0.0
 40
1.25
100
AcDbArc
 50
315.0000000000005
 51
135.0000000000004
  0
LINE
  5
10C3D
330
DE84
100
AcDbEntity
  8
0
100
AcDbLine
 10
46.50000000000005
 20
98.90000000000002
 30
0.0
 11
53.50000000000005
 21
98.90000000000002
 31
0.0
  0
LINE
  5
10C3E
330
DE84
100
AcDbEntity
  8
0
100
AcDbLine
 10
40.00000000000006
 20
100.1
 30
0.0
 11
40.00000000000006
 21
98.40000000000003
 31
0.0
  0
LINE
  5
10C3F
330
DE84
100
AcDbEntity
  8
0
100
AcDbLine
 10
46.50000000000005
 20
101.4
 30
0.0
 11
46.50000000000005
 21
98.90000000000002
 31
0.0
  0
LINE
  5
10C40
330
DE84
100
AcDbEntity
  8
0
100
AcDbLine
 10
53.50000000000005
 20
101.4
 30
0.0
 11
53.50000000000005
 21
98.90000000000002
 31
0.0
  0
LINE
  5
10C41
330
DE84
100
AcDbEntity
  8
0
100
AcDbLine
 10
60.00000000000006
 20
100.1
 30
0.0
 11
60.00000000000006
 21
98.40000000000003
 31
0.0
  0
LINE
  5
10C42
330
DE84
100
AcDbEntity
  8
0
100
AcDbLine
 10
5.600000000000051
 20
112.4
 30
0.0
 11
16.56253911140465
 21
112.4
 31
0.0
  0
LINE
  5
10C43
330
DE84
100
AcDbEntity
  8
0
100
AcDbLine
 10
5.600000000000051
 20
107.4
 30
0.0
 11
16.56253911140465
 21
107.4
 31
0.0
  0
CIRCLE
  5
10C44
330
DE84
100
AcDbEntity
  8
0
100
AcDbCircle
 10
8.000000000000028
 20
109.9
 30
0.0
 40
0.65
  0
LINE
  5
10C45
330
DE84
100
AcDbEntity
  8
0
100
AcDbLine
 10
12.80000000000012
 20
111.95
 30
0.0
 11
12.80000000000012
 21
107.85
 31
0.0
  0
LINE
  5
10C46
330
DE84
100
AcDbEntity
  8
0
100
AcDbLine
 10
11.60000000000005
 20
111.95
 30
0.0
 11
11.60000000000005
 21
107.85
 31
0.0
  0
LINE
  5
10C47
330
DE84
100
AcDbEntity
  8
0
100
AcDbLine
 10
83.43746088859559
 20
112.4
 30
0.0
 11
94.40000000000015
 21
112.4
 31
0.0
  0
LINE
  5
10C48
330
DE84
100
AcDbEntity
  8
0
100
AcDbLine
 10
83.43746088859559
 20
107.4
 30
0.0
 11
94.40000000000015
 21
107.4
 31
0.0
  0
LINE
  5
10C49
330
DE84
100
AcDbEntity
  8
0
100
AcDbLine
 10
88.40000000000015
 20
111.95
 30
0.0
 11
88.40000000000015
 21
107.85
 31
0.0
  0
LINE
  5
10C4A
330
DE84
100
AcDbEntity
  8
0
100
AcDbLine
 10
87.20000000000011
 20
111.95
 30
0.0
 11
87.20000000000011
 21
107.85
 31
0.0
  0
CIRCLE
  5
10C4B
330
DE84
100
AcDbEntity
  8
0
100
AcDbCircle
 10
92.00000000000017
 20
109.9
 30
0.0
 40
0.65
  0
TEXT
  5
10C95
330
DE84
100
AcDbEntity
  8
0
100
AcDbText
 10
15.0
 20
10.275
 30
0.0
 40
3.149999999999999
  1
分電盤／２連式大形電源端子箱付　８回路
100
AcDbText
  0
TEXT
  5
10C96
330
DE84
100
AcDbEntity
  8
0
100
AcDbText
 10
15.0
 20
5.550000000000011
 30
0.0
 40
3.149999999999999
  1
EXP6208-5
100
AcDbText
  0
LINE
  5
10CBA
330
DE84
100
AcDbEntity
  8
0
100
AcDbLine
 10
18.82828999999986
 20
94.65000000000001
 30
0.0
 11
20.87335999999999
 21
91.72934000000003
 31
0.0
  0
LINE
  5
10CBB
330
DE84
100
AcDbEntity
  8
0
100
AcDbLine
 10
16.99811000000017
 20
93.65952000000008
 30
0.0
 11
15.24637999999976
 21
89.45128000000016
 31
0.0
  0
LINE
  5
10CBC
330
DE84
100
AcDbEntity
  8
0
100
AcDbLine
 10
15.16075999999992
 20
89.50734000000004
 30
0.0
 11
16.57710000000014
 21
93.62137
 31
0.0
  0
LINE
  5
10CBD
330
DE84
100
AcDbEntity
  8
0
100
AcDbLine
 10
15.70145000000019
 20
94.10593000000011
 30
0.0
 11
14.49144999999993
 21
89.71117999999995
 31
0.0
  0
LINE
  5
10CBE
330
DE84
100
AcDbEntity
  8
0
100
AcDbLine
 10
14.59343999999981
 20
89.7026500000001
 30
0.0
 11
16.00976000000008
 21
93.81669000000004
 31
0.0
  0
LINE
  5
10CBF
330
DE84
100
AcDbEntity
  8
0
100
AcDbLine
 10
12.52663999999998
 20
91.72934000000003
 30
0.0
 11
14.57170999999988
 21
94.65000000000001
 31
0.0
  0
ARC
  5
10CC0
330
DE84
100
AcDbEntity
  8
0
100
AcDbCircle
 10
19.3169699999998
 20
90.63954000000006
 30
0.0
 40
1.9
100
AcDbArc
 50
301.5602000000134
 51
34.99999999999713
  0
ARC
  5
10CC1
330
DE84
100
AcDbEntity
  8
0
100
AcDbCircle
 10
14.08302999999972
 20
90.63955000000003
 30
0.0
 40
1.9
100
AcDbArc
 50
145.0000000000029
 51
238.4397999999853
  0
ARC
  5
10CC2
330
DE84
100
AcDbEntity
  8
0
100
AcDbCircle
 10
14.87708999999989
 20
89.60498999999996
 30
0.0
 40
0.3999992
100
AcDbArc
 50
164.6064000000052
 51
337.4001000000088
  0
ARC
  5
10CC3
330
DE84
100
AcDbEntity
  8
0
100
AcDbCircle
 10
14.87708999999989
 20
89.60498999999996
 30
0.0
 40
0.3
100
AcDbArc
 50
161.0032999999962
 51
341.0032999999962
  0
LWPOLYLINE
  5
10CC4
330
DE84
100
AcDbEntity
  8
0
100
AcDbPolyline
 90
        3
 70
     0
 43
0.0
 10
14.74999999999994
 20
90.65024001033082
 10
14.74999999999994
 20
91.2000000000002
 10
14.90136460265097
 20
91.2000000000002
  0
ARC
  5
10CC5
330
DE84
100
AcDbEntity
  8
0
100
AcDbCircle
 10
16.69999999999999
 20
94.90000000000001
 30
0.0
 40
6.899999
100
AcDbArc
 50
238.4397999999853
 51
301.5602000000134
  0
LWPOLYLINE
  5
10CC6
330
DE84
100
AcDbEntity
  8
0
100
AcDbPolyline
 90
        4
 70
     0
 43
0.0
 10
15.97430551888686
 20
91.2000000000002
 10
18.65000000000003
 20
91.2000000000002
 10
18.65000000000003
 20
89.60000000000006
 10
15.30828647054335
 20
89.60000000000006
  0
ARC
  5
10CC7
330
DE84
100
AcDbEntity
  8
0
100
AcDbCircle
 10
16.69999999999999
 20
94.90000000000001
 30
0.0
 40
1.1
100
AcDbArc
 50
300.0796000000703
 51
346.8633999999797
  0
ARC
  5
10CC8
330
DE84
100
AcDbEntity
  8
0
100
AcDbCircle
 10
16.69999999999999
 20
94.90000000000001
 30
0.0
 40
0.9
100
AcDbArc
 50
289.6856999999843
 51
343.8724000000277
  0
ARC
  5
10CC9
330
DE84
100
AcDbEntity
  8
0
100
AcDbCircle
 10
15.34788999999972
 20
94.04455
 30
0.0
 40
0.7000000000000001
100
AcDbArc
 50
341.0031999999813
 51
32.32059000005099
  0
ARC
  5
10CCA
330
DE84
100
AcDbEntity
  8
0
100
AcDbCircle
 10
15.12298000000004
 20
94.26519
 30
0.0
 40
0.6000000000000001
100
AcDbArc
 50
344.6062999999514
 51
21.92661000002189
  0
ARC
  5
10CCB
330
DE84
100
AcDbEntity
  8
0
100
AcDbCircle
 10
16.69999999999999
 20
94.90000000000001
 30
0.0
 40
1.1
100
AcDbArc
 50
193.136900000009
 51
201.9265999999829
  0
ARC
  5
10CCC
330
DE84
100
AcDbEntity
  8
0
100
AcDbCircle
 10
16.69999999999999
 20
94.90000000000001
 30
0.0
 40
0.9
100
AcDbArc
 50
196.1280000000119
 51
212.3205999999901
  0
ARC
  5
10CCD
330
DE84
100
AcDbEntity
  8
0
100
AcDbCircle
 10
17.55203999999975
 20
93.42893999999994
 30
0.0
 40
0.6000000000000001
100
AcDbArc
 50
120.0796000000703
 51
157.4000000000305
  0
ARC
  5
10CCE
330
DE84
100
AcDbEntity
  8
0
100
AcDbCircle
 10
17.23896999999982
 20
93.39352000000001
 30
0.0
 40
0.7000000000000001
100
AcDbArc
 50
109.6855999999318
 51
161.0031000000303
  0
LWPOLYLINE
  5
10CCF
330
DE84
100
AcDbEntity
  8
0
100
AcDbPolyline
 90
        8
 70
     1
 43
0.0
 10
14.40000000000003
 20
94.65000000000001
 10
18.99999999999994
 20
94.65000000000001
 42
0.4142135623730951
 10
19.19999999999999
 20
94.85000000000006
 10
19.19999999999999
 20
96.95000000000021
 42
0.4142135623730895
 10
18.99999999999994
 20
97.15000000000003
 10
14.40000000000003
 20
97.15000000000024
 42
0.4142135623730951
 10
14.19999999999999
 20
96.95000000000021
 10
14.19999999999999
 20
94.85000000000006
 42
0.4142135623730951
  0
LINE
  5
10CEB
330
DE84
100
AcDbEntity
  8
0
100
AcDbLine
 10
31.82828999999987
 20
94.65000000000001
 30
0.0
 11
33.87335999999999
 21
91.72934000000003
 31
0.0
  0
LINE
  5
10CEC
330
DE84
100
AcDbEntity
  8
0
100
AcDbLine
 10
29.99811000000017
 20
93.65952000000008
 30
0.0
 11
28.24637999999976
 21
89.45128000000016
 31
0.0
  0
LINE
  5
10CED
330
DE84
100
AcDbEntity
  8
0
100
AcDbLine
 10
28.16075999999993
 20
89.50734000000004
 30
0.0
 11
29.57710000000015
 21
93.62137
 31
0.0
  0
LINE
  5
10CEE
330
DE84
100
AcDbEntity
  8
0
100
AcDbLine
 10
28.7014500000002
 20
94.10593000000011
 30
0.0
 11
27.49144999999993
 21
89.71117999999995
 31
0.0
  0
LINE
  5
10CEF
330
DE84
100
AcDbEntity
  8
0
100
AcDbLine
 10
27.59343999999982
 20
89.7026500000001
 30
0.0
 11
29.00976000000009
 21
93.81669000000004
 31
0.0
  0
LINE
  5
10CF0
330
DE84
100
AcDbEntity
  8
0
100
AcDbLine
 10
25.52663999999999
 20
91.72934000000003
 30
0.0
 11
27.57170999999988
 21
94.65000000000001
 31
0.0
  0
ARC
  5
10CF1
330
DE84
100
AcDbEntity
  8
0
100
AcDbCircle
 10
32.3169699999998
 20
90.63954000000006
 30
0.0
 40
1.9
100
AcDbArc
 50
301.5602000000134
 51
34.99999999999713
  0
ARC
  5
10CF2
330
DE84
100
AcDbEntity
  8
0
100
AcDbCircle
 10
27.08302999999972
 20
90.63955000000003
 30
0.0
 40
1.9
100
AcDbArc
 50
145.0000000000029
 51
238.4397999999853
  0
ARC
  5
10CF3
330
DE84
100
AcDbEntity
  8
0
100
AcDbCircle
 10
27.8770899999999
 20
89.60498999999996
 30
0.0
 40
0.3999992
100
AcDbArc
 50
164.6064000000052
 51
337.4001000000088
  0
ARC
  5
10CF4
330
DE84
100
AcDbEntity
  8
0
100
AcDbCircle
 10
27.8770899999999
 20
89.60498999999996
 30
0.0
 40
0.3
100
AcDbArc
 50
161.0032999999962
 51
341.0032999999962
  0
LWPOLYLINE
  5
10CF5
330
DE84
100
AcDbEntity
  8
0
100
AcDbPolyline
 90
        3
 70
     0
 43
0.0
 10
27.74999999999995
 20
90.65024001033082
 10
27.74999999999995
 20
91.2000000000002
 10
27.90136460265097
 20
91.2000000000002
  0
ARC
  5
10CF6
330
DE84
100
AcDbEntity
  8
0
100
AcDbCircle
 10
29.69999999999999
 20
94.90000000000001
 30
0.0
 40
6.899999
100
AcDbArc
 50
238.4397999999853
 51
301.5602000000134
  0
LWPOLYLINE
  5
10CF7
330
DE84
100
AcDbEntity
  8
0
100
AcDbPolyline
 90
        4
 70
     0
 43
0.0
 10
28.97430551888687
 20
91.2000000000002
 10
31.65000000000004
 20
91.2000000000002
 10
31.65000000000004
 20
89.60000000000006
 10
28.30828647054335
 20
89.60000000000006
  0
ARC
  5
10CF8
330
DE84
100
AcDbEntity
  8
0
100
AcDbCircle
 10
29.69999999999999
 20
94.90000000000001
 30
0.0
 40
1.1
100
AcDbArc
 50
300.0796000000703
 51
346.8633999999797
  0
ARC
  5
10CF9
330
DE84
100
AcDbEntity
  8
0
100
AcDbCircle
 10
29.69999999999999
 20
94.90000000000001
 30
0.0
 40
0.9
100
AcDbArc
 50
289.6856999999843
 51
343.8724000000277
  0
ARC
  5
10CFA
330
DE84
100
AcDbEntity
  8
0
100
AcDbCircle
 10
28.34788999999972
 20
94.04455
 30
0.0
 40
0.7000000000000001
100
AcDbArc
 50
341.0031999999813
 51
32.32059000005099
  0
ARC
  5
10CFB
330
DE84
100
AcDbEntity
  8
0
100
AcDbCircle
 10
28.12298000000004
 20
94.26519
 30
0.0
 40
0.6000000000000001
100
AcDbArc
 50
344.6062999999514
 51
21.92661000002189
  0
ARC
  5
10CFC
330
DE84
100
AcDbEntity
  8
0
100
AcDbCircle
 10
29.69999999999999
 20
94.90000000000001
 30
0.0
 40
1.1
100
AcDbArc
 50
193.136900000009
 51
201.9265999999829
  0
ARC
  5
10CFD
330
DE84
100
AcDbEntity
  8
0
100
AcDbCircle
 10
29.69999999999999
 20
94.90000000000001
 30
0.0
 40
0.9
100
AcDbArc
 50
196.1280000000119
 51
212.3205999999901
  0
ARC
  5
10CFE
330
DE84
100
AcDbEntity
  8
0
100
AcDbCircle
 10
30.55203999999975
 20
93.42893999999994
 30
0.0
 40
0.6000000000000001
100
AcDbArc
 50
120.0796000000703
 51
157.4000000000305
  0
ARC
  5
10CFF
330
DE84
100
AcDbEntity
  8
0
100
AcDbCircle
 10
30.23896999999982
 20
93.39352000000001
 30
0.0
 40
0.7000000000000001
100
AcDbArc
 50
109.6855999999318
 51
161.0031000000303
  0
LWPOLYLINE
  5
10D00
330
DE84
100
AcDbEntity
  8
0
100
AcDbPolyline
 90
        8
 70
     1
 43
0.0
 10
27.40000000000004
 20
94.65000000000001
 10
31.99999999999994
 20
94.65000000000001
 42
0.4142135623730951
 10
32.19999999999999
 20
94.85000000000006
 10
32.19999999999999
 20
96.95000000000021
 42
0.4142135623730895
 10
31.99999999999994
 20
97.15000000000003
 10
27.40000000000004
 20
97.15000000000024
 42
0.4142135623730951
 10
27.19999999999999
 20
96.95000000000021
 10
27.19999999999999
 20
94.85000000000006
 42
0.4142135623730951
  0
LINE
  5
10D1C
330
DE84
100
AcDbEntity
  8
0
100
AcDbLine
 10
71.42828999999989
 20
94.65000000000001
 30
0.0
 11
73.47336000000002
 21
91.72934000000003
 31
0.0
  0
LINE
  5
10D1D
330
DE84
100
AcDbEntity
  8
0
100
AcDbLine
 10
69.59811000000019
 20
93.65952000000008
 30
0.0
 11
67.84637999999978
 21
89.45128000000016
 31
0.0
  0
LINE
  5
10D1E
330
DE84
100
AcDbEntity
  8
0
100
AcDbLine
 10
67.76075999999995
 20
89.50734000000004
 30
0.0
 11
69.17710000000017
 21
93.62137
 31
0.0
  0
LINE
  5
10D1F
330
DE84
100
AcDbEntity
  8
0
100
AcDbLine
 10
68.30145000000022
 20
94.10593000000011
 30
0.0
 11
67.09144999999995
 21
89.71117999999995
 31
0.0
  0
LINE
  5
10D20
330
DE84
100
AcDbEntity
  8
0
100
AcDbLine
 10
67.19343999999984
 20
89.7026500000001
 30
0.0
 11
68.60976000000011
 21
93.81669000000004
 31
0.0
  0
LINE
  5
10D21
330
DE84
100
AcDbEntity
  8
0
100
AcDbLine
 10
65.12664
 20
91.72934000000003
 30
0.0
 11
67.1717099999999
 21
94.65000000000001
 31
0.0
  0
ARC
  5
10D22
330
DE84
100
AcDbEntity
  8
0
100
AcDbCircle
 10
71.91696999999982
 20
90.63954000000006
 30
0.0
 40
1.9
100
AcDbArc
 50
301.5602000000131
 51
34.9999999999969
  0
ARC
  5
10D23
330
DE84
100
AcDbEntity
  8
0
100
AcDbCircle
 10
66.68302999999975
 20
90.63955000000003
 30
0.0
 40
1.9
100
AcDbArc
 50
145.0000000000031
 51
238.4397999999851
  0
ARC
  5
10D24
330
DE84
100
AcDbEntity
  8
0
100
AcDbCircle
 10
67.47708999999992
 20
89.60498999999996
 30
0.0
 40
0.3999992
100
AcDbArc
 50
164.6064000000052
 51
337.4001000000088
  0
ARC
  5
10D25
330
DE84
100
AcDbEntity
  8
0
100
AcDbCircle
 10
67.47708999999992
 20
89.60498999999996
 30
0.0
 40
0.3
100
AcDbArc
 50
161.0032999999962
 51
341.0032999999962
  0
LWPOLYLINE
  5
10D26
330
DE84
100
AcDbEntity
  8
0
100
AcDbPolyline
 90
        3
 70
     0
 43
0.0
 10
67.34999999999996
 20
90.65024001033082
 10
67.34999999999996
 20
91.2000000000002
 10
67.501364602651
 20
91.2000000000002
  0
ARC
  5
10D27
330
DE84
100
AcDbEntity
  8
0
100
AcDbCircle
 10
69.30000000000001
 20
94.90000000000001
 30
0.0
 40
6.899999
100
AcDbArc
 50
238.4397999999851
 51
301.5602000000131
  0
LWPOLYLINE
  5
10D28
330
DE84
100
AcDbEntity
  8
0
100
AcDbPolyline
 90
        4
 70
     0
 43
0.0
 10
68.57430551888689
 20
91.2000000000002
 10
71.25000000000006
 20
91.2000000000002
 10
71.25000000000006
 20
89.60000000000006
 10
67.90828647054337
 20
89.60000000000006
  0
ARC
  5
10D29
330
DE84
100
AcDbEntity
  8
0
100
AcDbCircle
 10
69.30000000000001
 20
94.90000000000001
 30
0.0
 40
1.1
100
AcDbArc
 50
300.0796000000703
 51
346.8633999999796
  0
ARC
  5
10D2A
330
DE84
100
AcDbEntity
  8
0
100
AcDbCircle
 10
69.30000000000001
 20
94.90000000000001
 30
0.0
 40
0.9
100
AcDbArc
 50
289.6856999999843
 51
343.8724000000278
  0
ARC
  5
10D2B
330
DE84
100
AcDbEntity
  8
0
100
AcDbCircle
 10
67.94788999999974
 20
94.04455
 30
0.0
 40
0.7000000000000001
100
AcDbArc
 50
341.0031999999812
 51
32.32059000005088
  0
ARC
  5
10D2C
330
DE84
100
AcDbEntity
  8
0
100
AcDbCircle
 10
67.72298000000006
 20
94.26519
 30
0.0
 40
0.6000000000000001
100
AcDbArc
 50
344.6062999999514
 51
21.92661000002181
  0
ARC
  5
10D2D
330
DE84
100
AcDbEntity
  8
0
100
AcDbCircle
 10
69.30000000000001
 20
94.90000000000001
 30
0.0
 40
1.1
100
AcDbArc
 50
193.1369000000091
 51
201.9265999999828
  0
ARC
  5
10D2E
330
DE84
100
AcDbEntity
  8
0
100
AcDbCircle
 10
69.30000000000001
 20
94.90000000000001
 30
0.0
 40
0.9
100
AcDbArc
 50
196.1280000000118
 51
212.3205999999902
  0
ARC
  5
10D2F
330
DE84
100
AcDbEntity
  8
0
100
AcDbCircle
 10
70.15203999999977
 20
93.42893999999994
 30
0.0
 40
0.6000000000000001
100
AcDbArc
 50
120.0796000000703
 51
157.4000000000304
  0
ARC
  5
10D30
330
DE84
100
AcDbEntity
  8
0
100
AcDbCircle
 10
69.83896999999984
 20
93.39352000000001
 30
0.0
 40
0.7000000000000001
100
AcDbArc
 50
109.6855999999316
 51
161.0031000000302
  0
LWPOLYLINE
  5
10D31
330
DE84
100
AcDbEntity
  8
0
100
AcDbPolyline
 90
        8
 70
     1
 43
0.0
 10
67.00000000000006
 20
94.65000000000001
 10
71.59999999999996
 20
94.65000000000001
 42
0.4142135623730951
 10
71.80000000000001
 20
94.85000000000006
 10
71.80000000000001
 20
96.95000000000021
 42
0.4142135623730895
 10
71.59999999999996
 20
97.15000000000003
 10
67.00000000000006
 20
97.15000000000024
 42
0.4142135623730951
 10
66.80000000000001
 20
96.95000000000021
 10
66.80000000000001
 20
94.85000000000006
 42
0.4142135623730951
  0
LINE
  5
10D4D
330
DE84
100
AcDbEntity
  8
0
100
AcDbLine
 10
84.42828999999989
 20
94.65000000000001
 30
0.0
 11
86.47336000000001
 21
91.72934000000003
 31
0.0
  0
LINE
  5
10D4E
330
DE84
100
AcDbEntity
  8
0
100
AcDbLine
 10
82.59811000000018
 20
93.65952000000008
 30
0.0
 11
80.84637999999978
 21
89.45128000000016
 31
0.0
  0
LINE
  5
10D4F
330
DE84
100
AcDbEntity
  8
0
100
AcDbLine
 10
80.76075999999995
 20
89.50734000000004
 30
0.0
 11
82.17710000000016
 21
93.62137
 31
0.0
  0
LINE
  5
10D50
330
DE84
100
AcDbEntity
  8
0
100
AcDbLine
 10
81.30145000000021
 20
94.10593000000011
 30
0.0
 11
80.09144999999994
 21
89.71117999999995
 31
0.0
  0
LINE
  5
10D51
330
DE84
100
AcDbEntity
  8
0
100
AcDbLine
 10
80.19343999999984
 20
89.7026500000001
 30
0.0
 11
81.6097600000001
 21
93.81669000000004
 31
0.0
  0
LINE
  5
10D52
330
DE84
100
AcDbEntity
  8
0
100
AcDbLine
 10
78.12664000000001
 20
91.72934000000003
 30
0.0
 11
80.1717099999999
 21
94.65000000000001
 31
0.0
  0
ARC
  5
10D53
330
DE84
100
AcDbEntity
  8
0
100
AcDbCircle
 10
84.91696999999982
 20
90.63954000000006
 30
0.0
 40
1.9
100
AcDbArc
 50
301.5602000000131
 51
34.9999999999969
  0
ARC
  5
10D54
330
DE84
100
AcDbEntity
  8
0
100
AcDbCircle
 10
79.68302999999974
 20
90.63955000000003
 30
0.0
 40
1.9
100
AcDbArc
 50
145.0000000000031
 51
238.4397999999851
  0
ARC
  5
10D55
330
DE84
100
AcDbEntity
  8
0
100
AcDbCircle
 10
80.47708999999992
 20
89.60498999999996
 30
0.0
 40
0.3999992
100
AcDbArc
 50
164.6064000000052
 51
337.4001000000088
  0
ARC
  5
10D56
330
DE84
100
AcDbEntity
  8
0
100
AcDbCircle
 10
80.47708999999992
 20
89.60498999999996
 30
0.0
 40
0.3
100
AcDbArc
 50
161.0032999999962
 51
341.0032999999962
  0
LWPOLYLINE
  5
10D57
330
DE84
100
AcDbEntity
  8
0
100
AcDbPolyline
 90
        3
 70
     0
 43
0.0
 10
80.34999999999996
 20
90.65024001033082
 10
80.34999999999996
 20
91.2000000000002
 10
80.50136460265099
 20
91.2000000000002
  0
ARC
  5
10D58
330
DE84
100
AcDbEntity
  8
0
100
AcDbCircle
 10
82.30000000000002
 20
94.90000000000001
 30
0.0
 40
6.899999
100
AcDbArc
 50
238.4397999999851
 51
301.5602000000131
  0
LWPOLYLINE
  5
10D59
330
DE84
100
AcDbEntity
  8
0
100
AcDbPolyline
 90
        4
 70
     0
 43
0.0
 10
81.57430551888689
 20
91.2000000000002
 10
84.25000000000006
 20
91.2000000000002
 10
84.25000000000006
 20
89.60000000000006
 10
80.90828647054337
 20
89.60000000000006
  0
ARC
  5
10D5A
330
DE84
100
AcDbEntity
  8
0
100
AcDbCircle
 10
82.30000000000002
 20
94.90000000000001
 30
0.0
 40
1.1
100
AcDbArc
 50
300.0796000000703
 51
346.8633999999796
  0
ARC
  5
10D5B
330
DE84
100
AcDbEntity
  8
0
100
AcDbCircle
 10
82.30000000000002
 20
94.90000000000001
 30
0.0
 40
0.9
100
AcDbArc
 50
289.6856999999843
 51
343.8724000000278
  0
ARC
  5
10D5C
330
DE84
100
AcDbEntity
  8
0
100
AcDbCircle
 10
80.94788999999975
 20
94.04455
 30
0.0
 40
0.7000000000000001
100
AcDbArc
 50
341.0031999999812
 51
32.32059000005088
  0
ARC
  5
10D5D
330
DE84
100
AcDbEntity
  8
0
100
AcDbCircle
 10
80.72298000000007
 20
94.26519
 30
0.0
 40
0.6000000000000001
100
AcDbArc
 50
344.6062999999514
 51
21.92661000002181
  0
ARC
  5
10D5E
330
DE84
100
AcDbEntity
  8
0
100
AcDbCircle
 10
82.30000000000002
 20
94.90000000000001
 30
0.0
 40
1.1
100
AcDbArc
 50
193.1369000000091
 51
201.9265999999828
  0
ARC
  5
10D5F
330
DE84
100
AcDbEntity
  8
0
100
AcDbCircle
 10
82.30000000000002
 20
94.90000000000001
 30
0.0
 40
0.9
100
AcDbArc
 50
196.1280000000118
 51
212.3205999999902
  0
ARC
  5
10D60
330
DE84
100
AcDbEntity
  8
0
100
AcDbCircle
 10
83.15203999999978
 20
93.42893999999994
 30
0.0
 40
0.6000000000000001
100
AcDbArc
 50
120.0796000000703
 51
157.4000000000304
  0
ARC
  5
10D61
330
DE84
100
AcDbEntity
  8
0
100
AcDbCircle
 10
82.83896999999985
 20
93.39352000000001
 30
0.0
 40
0.7000000000000001
100
AcDbArc
 50
109.6855999999316
 51
161.0031000000302
  0
LWPOLYLINE
  5
10D62
330
DE84
100
AcDbEntity
  8
0
100
AcDbPolyline
 90
        8
 70
     1
 43
0.0
 10
80.00000000000005
 20
94.65000000000001
 10
84.59999999999997
 20
94.65000000000001
 42
0.4142135623730951
 10
84.80000000000002
 20
94.85000000000006
 10
84.80000000000002
 20
96.95000000000021
 42
0.4142135623730895
 10
84.59999999999997
 20
97.15000000000003
 10
80.00000000000005
 20
97.15000000000024
 42
0.4142135623730951
 10
79.80000000000001
 20
96.95000000000021
 10
79.80000000000001
 20
94.85000000000006
 42
0.4142135623730951
  0
ENDSEC
  0
SECTION
  2
OBJECTS
  0
DICTIONARY
  5
DE72
330
0
100
AcDbDictionary
281
     1
  3
ACAD_CIP_PREVIOUS_PRODUCT_INFO
350
10C93
  3
ACAD_COLOR
350
10C86
  3
ACAD_DETAILVIEWSTYLE
350
10C8F
  3
ACAD_GROUP
350
DE73
  3
ACAD_LAYOUT
350
DE7F
  3
ACAD_MATERIAL
350
10C54
  3
ACAD_MLEADERSTYLE
350
10C8B
  3
ACAD_MLINESTYLE
350
DE7C
  3
ACAD_PLOTSETTINGS
350
DE7E
  3
ACAD_PLOTSTYLENAME
350
DE74
  3
ACAD_SCALELIST
350
10C89
  3
ACAD_SECTIONVIEWSTYLE
350
10C8D
  3
ACAD_TABLESTYLE
350
10C87
  3
ACAD_VISUALSTYLE
350
10C6D
  3
ACDB_RECOMPOSE_DATA
350
10D8A
  3
AcDbVariableDictionary
350
10D7E
  0
DICTIONARY
  5
10C9D
330
DE68
100
AcDbDictionary
280
     1
281
     1
  3
ACAD_LAYERSTATES
360
10C9E
  0
DICTIONARY
  5
10D72
330
DE76
100
AcDbDictionary
280
     1
281
     1
  3
ADSK_XREC_LAYER_RECONCILED
360
10D73
  0
DICTIONARY
  5
EB6F
330
DE84
100
AcDbDictionary
280
     1
281
     1
  3
ACAD_LAYOUTSELFREF
360
EBA3
  0
XRECORD
  5
10C93
102
{ACAD_REACTORS
330
DE72
102
}
330
DE72
100
AcDbXrecord
280
     1
300
ACDLT
300
2018
300

  0
DICTIONARY
  5
10C86
102
{ACAD_REACTORS
330
DE72
102
}
330
DE72
100
AcDbDictionary
281
     1
  0
DICTIONARY
  5
10C8F
102
{ACAD_REACTORS
330
DE72
102
}
330
DE72
100
AcDbDictionary
281
     1
  3
Imperial24
350
10C90
  0
DICTIONARY
  5
DE73
102
{ACAD_REACTORS
330
DE72
102
}
330
DE72
100
AcDbDictionary
281
     1
  0
DICTIONARY
  5
DE7F
102
{ACAD_REACTORS
330
DE72
102
}
330
DE72
100
AcDbDictionary
281
     1
  3
Model
350
DE87
  3
レイアウト1
350
10D6E
  0
DICTIONARY
  5
10C54
102
{ACAD_REACTORS
330
DE72
102
}
330
DE72
100
AcDbDictionary
281
     1
  3
ByBlock
350
10C5D
  3
ByLayer
350
10C55
  3
Global
350
10C65
  0
DICTIONARY
  5
10C8B
102
{ACAD_REACTORS
330
DE72
102
}
330
DE72
100
AcDbDictionary
281
     1
  3
Standard
350
10C8C
  0
DICTIONARY
  5
DE7C
102
{ACAD_REACTORS
330
DE72
102
}
330
DE72
100
AcDbDictionary
281
     1
  3
Standard
350
DE7D
  0
DICTIONARY
  5
DE7E
102
{ACAD_REACTORS
330
DE72
102
}
330
DE72
100
AcDbDictionary
281
     1
  0
ACDBDICTIONARYWDFLT
  5
DE74
102
{ACAD_REACTORS
330
DE72
102
}
330
DE72
100
AcDbDictionary
281
     1
  3
Normal
350
DE75
100
AcDbDictionaryWithDefault
340
DE75
  0
DICTIONARY
  5
10C89
102
{ACAD_REACTORS
330
DE72
102
}
330
DE72
100
AcDbDictionary
281
     1
  3
A0
350
10C8A
  0
DICTIONARY
  5
10C8D
102
{ACAD_REACTORS
330
DE72
102
}
330
DE72
100
AcDbDictionary
281
     1
  3
Imperial24
350
10C8E
  0
DICTIONARY
  5
10C87
102
{ACAD_REACTORS
330
DE72
102
}
330
DE72
100
AcDbDictionary
281
     1
  3
Standard
350
10C88
  0
DICTIONARY
  5
10C6D
102
{ACAD_REACTORS
330
DE72
102
}
330
DE72
100
AcDbDictionary
281
     1
  3
2dWireframe
350
10C73
  3
Basic
350
10C72
  3
Brighten
350
10C79
  3
ColorChange
350
10C7D
  3
Conceptual
350
10C76
  3
Dim
350
10C78
  3
EdgeColorOff
350
10C85
  3
Facepattern
350
10C7C
  3
Flat
350
10C6E
  3
FlatWithEdges
350
10C6F
  3
Gouraud
350
10C70
  3
GouraudWithEdges
350
10C71
  3
Hidden
350
10C75
  3
JitterOff
350
10C83
  3
Linepattern
350
10C7B
  3
OverhangOff
350
10C84
  3
Realistic
350
10C77
  3
Shaded
350
10C82
  3
Shaded with edges
350
10C81
  3
Shades of Gray
350
10C7E
  3
Sketchy
350
10C7F
  3
Thicken
350
10C7A
  3
Wireframe
350
10C74
  3
X-Ray
350
10C80
  0
XRECORD
  5
10D8A
102
{ACAD_REACTORS
330
DE72
102
}
330
DE72
100
AcDbXrecord
280
     1
 90
        1
330
10C88
  0
DICTIONARY
  5
10D7E
102
{ACAD_REACTORS
330
DE72
102
}
330
DE72
100
AcDbDictionary
281
     1
  3
CANNOSCALE
350
10D84
  3
CMLEADERSTYLE
350
10D80
  3
CTABLESTYLE
350
10D7F
  3
CVIEWDETAILSTYLE
350
10D81
  3
CVIEWSECTIONSTYLE
350
10D82
  3
LAYEREVAL
350
10D86
  3
LAYERNOTIFY
350
10D87
  3
LIGHTINGUNITS
350
10D85
  3
MSLTSCALE
350
10D83
  0
DICTIONARY
  5
10C9E
102
{ACAD_REACTORS
330
10C9D
102
}
330
10C9D
100
AcDbDictionary
281
     1
  0
XRECORD
  5
10D73
102
{ACAD_REACTORS
330
10D72
102
}
330
10D72
100
AcDbXrecord
280
     1
290
     1
  0
XRECORD
  5
EBA3
102
{ACAD_REACTORS
330
EB6F
102
}
330
EB6F
100
AcDbXrecord
280
     1
340
DE84
  0
ACDBDETAILVIEWSTYLE
  5
10C90
102
{ACAD_XDICTIONARY
360
10DBF
102
}
102
{ACAD_REACTORS
330
10C8F
102
}
330
10C8F
100
AcDbModelDocViewStyle
 70
     0
  3
Imperial24
290
     0
100
AcDbDetailViewStyle
 70
     0
 71
     0
 90
        3
 71
     1
340
DE77
 62
   256
 40
0.24
340
0
 62
   256
 40
0.24
300

 40
0.36
280
     3
 71
     2
340
DE7B
 90
       25
 62
   256
 71
     3
340
DE77
 62
   256
 40
0.24
 90
        1
 40
0.75
 90
        1
300
%<\AcVar ViewType \f "%tc1">% %<\AcVar ViewDetailId>%\PSCALE %<\AcVar ViewScale \f "%sn">%
 71
     4
340
DE7B
 90
       25
 62
   256
340
DE7B
 90
       25
 62
   256
280
     0
  0
LAYOUT
  5
DE87
102
{ACAD_REACTORS
330
DE7F
102
}
330
DE7F
100
AcDbPlotSettings
  1

  2
FUJITSU XL-5320
  4

  6

 40
0.0
 41
0.0
 42
0.0
 43
0.0
 44
0.0
 45
0.0
 46
0.0
 47
0.0
 48
0.0
 49
0.0
140
0.0
141
0.0
142
1.0
143
1.0
 70
  1712
 72
     0
 73
     0
 74
     0
  7
XL-5320.ctb
 75
     0
147
1.0
 76
     0
 77
     2
 78
   300
148
0.0
149
0.0
100
AcDbLayout
  1
Model
 70
     1
 71
     0
 10
0.0
 20
0.0
 11
12.0
 21
9.0
 12
0.0
 22
0.0
 32
0.0
 14
0.0
 24
0.0
 34
0.0
 15
0.0
 25
0.0
 35
0.0
146
0.0
 13
0.0
 23
0.0
 33
0.0
 16
1.0
 26
0.0
 36
0.0
 17
0.0
 27
1.0
 37
0.0
 76
     0
330
DE84
331
10C52
  0
LAYOUT
  5
10D6E
102
{ACAD_REACTORS
330
DE7F
102
}
330
DE7F
100
AcDbPlotSettings
  1

  2
DocuCentreIV C3375
  4

  6

 40
0.0
 41
0.0
 42
0.0
 43
0.0
 44
0.0
 45
0.0
 46
0.0
 47
0.0
 48
0.0
 49
0.0
140
0.0
141
0.0
142
1.0
143
1.0
 70
   688
 72
     0
 73
     0
 74
     5
  7

 75
    16
147
1.0
 76
     0
 77
     2
 78
   300
148
0.0
149
0.0
100
AcDbLayout
  1
レイアウト1
 70
     1
 71
     1
 10
0.0
 20
0.0
 11
12.0
 21
9.0
 12
0.0
 22
0.0
 32
0.0
 14
0.0
 24
0.0
 34
0.0
 15
0.0
 25
0.0
 35
0.0
146
0.0
 13
0.0
 23
0.0
 33
0.0
 16
1.0
 26
0.0
 36
0.0
 17
0.0
 27
1.0
 37
0.0
 76
     0
330
10D6D
  0
MATERIAL
  5
10C5D
102
{ACAD_XDICTIONARY
360
10C5E
102
}
102
{ACAD_REACTORS
330
10C54
102
}
330
10C54
100
AcDbMaterial
  1
ByBlock
 72
     0
 43
0.0208333333333333
 43
0.0
 43
0.0
 43
0.0
 43
0.0
 43
0.0208333333333333
 43
0.0
 43
0.0
 43
0.0
 43
0.0
 43
1.0
 43
0.0
 43
0.0
 43
0.0
 43
0.0
 43
1.0
 77
     0
 47
0.0208333333333333
 47
0.0
 47
0.0
 47
0.0
 47
0.0
 47
0.0208333333333333
 47
0.0
 47
0.0
 47
0.0
 47
0.0
 47
1.0
 47
0.0
 47
0.0
 47
0.0
 47
0.0
 47
1.0
171
     0
 49
0.0208333333333333
 49
0.0
 49
0.0
 49
0.0
 49
0.0
 49
0.0208333333333333
 49
0.0
 49
0.0
 49
0.0
 49
0.0
 49
1.0
 49
0.0
 49
0.0
 49
0.0
 49
0.0
 49
1.0
175
     0
142
0.0208333333333333
142
0.0
142
0.0
142
0.0
142
0.0
142
0.0208333333333333
142
0.0
142
0.0
142
0.0
142
0.0
142
1.0
142
0.0
142
0.0
142
0.0
142
0.0
142
1.0
179
     0
144
0.0208333333333333
144
0.0
144
0.0
144
0.0
144
0.0
144
0.0208333333333333
144
0.0
144
0.0
144
0.0
144
0.0
144
1.0
144
0.0
144
0.0
144
0.0
144
0.0
144
1.0
147
0.0208333333333333
147
0.0
147
0.0
147
0.0
147
0.0
147
0.0208333333333333
147
0.0
147
0.0
147
0.0
147
0.0
147
1.0
147
0.0
147
0.0
147
0.0
147
0.0
147
1.0
  0
MATERIAL
  5
10C55
102
{ACAD_XDICTIONARY
360
10C56
102
}
102
{ACAD_REACTORS
330
10C54
102
}
330
10C54
100
AcDbMaterial
  1
ByLayer
 72
     0
 43
0.0208333333333333
 43
0.0
 43
0.0
 43
0.0
 43
0.0
 43
0.0208333333333333
 43
0.0
 43
0.0
 43
0.0
 43
0.0
 43
1.0
 43
0.0
 43
0.0
 43
0.0
 43
0.0
 43
1.0
 77
     0
 47
0.0208333333333333
 47
0.0
 47
0.0
 47
0.0
 47
0.0
 47
0.0208333333333333
 47
0.0
 47
0.0
 47
0.0
 47
0.0
 47
1.0
 47
0.0
 47
0.0
 47
0.0
 47
0.0
 47
1.0
171
     0
 49
0.0208333333333333
 49
0.0
 49
0.0
 49
0.0
 49
0.0
 49
0.0208333333333333
 49
0.0
 49
0.0
 49
0.0
 49
0.0
 49
1.0
 49
0.0
 49
0.0
 49
0.0
 49
0.0
 49
1.0
175
     0
142
0.0208333333333333
142
0.0
142
0.0
142
0.0
142
0.0
142
0.0208333333333333
142
0.0
142
0.0
142
0.0
142
0.0
142
1.0
142
0.0
142
0.0
142
0.0
142
0.0
142
1.0
179
     0
144
0.0208333333333333
144
0.0
144
0.0
144
0.0
144
0.0
144
0.0208333333333333
144
0.0
144
0.0
144
0.0
144
0.0
144
1.0
144
0.0
144
0.0
144
0.0
144
0.0
144
1.0
147
0.0208333333333333
147
0.0
147
0.0
147
0.0
147
0.0
147
0.0208333333333333
147
0.0
147
0.0
147
0.0
147
0.0
147
1.0
147
0.0
147
0.0
147
0.0
147
0.0
147
1.0
  0
MATERIAL
  5
10C65
102
{ACAD_XDICTIONARY
360
10C66
102
}
102
{ACAD_REACTORS
330
10C54
102
}
330
10C54
100
AcDbMaterial
  1
Global
 72
     0
 43
0.0208333333333333
 43
0.0
 43
0.0
 43
0.0
 43
0.0
 43
0.0208333333333333
 43
0.0
 43
0.0
 43
0.0
 43
0.0
 43
1.0
 43
0.0
 43
0.0
 43
0.0
 43
0.0
 43
1.0
 77
     0
 47
0.0208333333333333
 47
0.0
 47
0.0
 47
0.0
 47
0.0
 47
0.0208333333333333
 47
0.0
 47
0.0
 47
0.0
 47
0.0
 47
1.0
 47
0.0
 47
0.0
 47
0.0
 47
0.0
 47
1.0
171
     0
 49
0.0208333333333333
 49
0.0
 49
0.0
 49
0.0
 49
0.0
 49
0.0208333333333333
 49
0.0
 49
0.0
 49
0.0
 49
0.0
 49
1.0
 49
0.0
 49
0.0
 49
0.0
 49
0.0
 49
1.0
175
     0
142
0.0208333333333333
142
0.0
142
0.0
142
0.0
142
0.0
142
0.0208333333333333
142
0.0
142
0.0
142
0.0
142
0.0
142
1.0
142
0.0
142
0.0
142
0.0
142
0.0
142
1.0
179
     0
144
0.0208333333333333
144
0.0
144
0.0
144
0.0
144
0.0
144
0.0208333333333333
144
0.0
144
0.0
144
0.0
144
0.0
144
1.0
144
0.0
144
0.0
144
0.0
144
0.0
144
1.0
147
0.0208333333333333
147
0.0
147
0.0
147
0.0
147
0.0
147
0.0208333333333333
147
0.0
147
0.0
147
0.0
147
0.0
147
1.0
147
0.0
147
0.0
147
0.0
147
0.0
147
1.0
  0
MLEADERSTYLE
  5
10C8C
102
{ACAD_XDICTIONARY
360
10DBB
102
}
102
{ACAD_REACTORS
330
10C8B
102
}
330
10C8B
100
AcDbMLeaderStyle
179
     2
170
     2
171
     1
172
     0
 90
        2
 40
0.0
 41
0.0
173
     1
 91
-1056964608
340
DE79
 92
       -2
290
     1
 42
0.09
291
     1
 43
0.36
  3
Standard
 44
0.18
300

342
DE77
174
     1
178
     6
175
     1
176
     0
 93
-1056964608
 45
0.18
292
     0
297
     0
 46
0.18
 94
-1056964608
 47
1.0
 49
1.0
140
1.0
293
     1
141
0.0
294
     1
177
     0
142
1.0
295
     0
296
     0
143
0.125
271
     0
272
     9
273
     9
  0
MLINESTYLE
  5
DE7D
102
{ACAD_REACTORS
330
DE7C
102
}
330
DE7C
100
AcDbMlineStyle
  2
STANDARD
 70
     0
  3

 62
   256
 51
90.0
 52
90.0
 71
     2
 49
0.5
 62
   256
  6
BYLAYER
 49
-0.5
 62
   256
  6
BYLAYER
  0
ACDBPLACEHOLDER
  5
DE75
102
{ACAD_REACTORS
330
DE74
102
}
330
DE74
  0
SCALE
  5
10C8A
102
{ACAD_REACTORS
330
10C89
102
}
330
10C89
100
AcDbScale
 70
     0
300
1:1
140
1.0
141
1.0
290
     1
  0
ACDBSECTIONVIEWSTYLE
  5
10C8E
102
{ACAD_XDICTIONARY
360
10DBD
102
}
102
{ACAD_REACTORS
330
10C8D
102
}
330
10C8D
100
AcDbModelDocViewStyle
 70
     0
  3
Imperial24
290
     0
100
AcDbSectionViewStyle
 70
     0
 71
     0
 90
       78
 71
     1
340
DE77
 62
   256
 40
0.24
340
0
340
0
 62
   256
 40
0.24
300
I, O, Q, S, X, Z
 40
0.48
 90
        3
 40
0.18
 90
        1
 71
     2
340
DE7B
 90
       25
 62
   256
340
DE7B
 90
       50
 62
   256
 40
0.24
 40
0.0
 40
0.24
 71
     3
340
DE77
 62
   256
 40
0.24
 90
        1
 40
0.75
 90
        1
300
%<\AcVar ViewType \f "%tc1">% %<\AcVar ViewSectionStartId>%-%<\AcVar ViewSectionEndId>%\PSCALE %<\AcVar ViewScale \f "%sn">%
 71
     4
 62
   256
 62
   257
300
ANSI31
 40
1.0
 90
        0
290
     0
290
     0
 90
        6
 40
0.0
 40
1.570796326794896
 40
0.2617993877991494
 40
1.308996938995747
 40
-0.2617993877991494
 40
1.832595714594046
  0
TABLESTYLE
  5
10C88
102
{ACAD_XDICTIONARY
360
10D88
102
}
102
{ACAD_REACTORS
330
10C87
102
}
330
10C87
100
AcDbTableStyle
280
     0
  3
Standard
 70
     0
 71
     0
 40
0.06
 41
0.06
280
     0
281
     0
  7
STANDARD
140
0.18
170
     2
 62
     0
 63
     7
283
     0
 90
      512
 91
        0
  1

274
    -2
284
     1
 64
     0
275
    -2
285
     1
 65
     0
276
    -2
286
     1
 66
     0
277
    -2
287
     1
 67
     0
278
    -2
288
     1
 68
     0
279
    -2
289
     1
 69
     0
  7
STANDARD
140
0.25
170
     5
 62
     0
 63
     7
283
     0
 90
      512
 91
        0
  1

274
    -2
284
     1
 64
     0
275
    -2
285
     1
 65
     0
276
    -2
286
     1
 66
     0
277
    -2
287
     1
 67
     0
278
    -2
288
     1
 68
     0
279
    -2
289
     1
 69
     0
  7
STANDARD
140
0.18
170
     5
 62
     0
 63
     7
283
     0
 90
      512
 91
        0
  1

274
    -2
284
     1
 64
     0
275
    -2
285
     1
 65
     0
276
    -2
286
     1
 66
     0
277
    -2
287
     1
 67
     0
278
    -2
288
     1
 68
     0
279
    -2
289
     1
 69
     0
  0
VISUALSTYLE
  5
10C73
102
{ACAD_XDICTIONARY
360
10D95
102
}
102
{ACAD_REACTORS
330
10C6D
102
}
330
10C6D
100
AcDbVisualStyle
  2
2dWireframe
 70
     4
177
     2
291
     0
 71
     0
176
     1
 72
     2
176
     1
 73
     0
176
     1
 90
        0
176
     1
 40
0.6
176
     1
 41
30.0
176
     1
 63
     7
421
 16777215
176
     1
 74
     1
176
     1
 91
        4
176
     1
 64
     7
176
     1
 65
   257
176
     1
 75
     1
176
     1
175
     1
176
     1
 42
1.0
176
     1
 92
        0
176
     1
 66
   257
176
     1
 43
1.0
176
     1
 76
     1
176
     1
 77
     6
176
     1
 78
     2
176
     1
 67
     7
176
     1
 79
     5
176
     1
170
     0
176
     1
171
     0
176
     1
290
     0
176
     1
 93
        1
176
     1
 44
0.0
176
     1
173
     0
176
     1
1001
ACAD
1000
AcDbSavedByObjectVersion
1070
     0
  0
VISUALSTYLE
  5
10C72
102
{ACAD_XDICTIONARY
360
10D93
102
}
102
{ACAD_REACTORS
330
10C6D
102
}
330
10C6D
100
AcDbVisualStyle
  2
Basic
 70
     7
177
     2
291
     1
 71
     1
176
     1
 72
     0
176
     1
 73
     1
176
     1
 90
        0
176
     1
 40
0.6
176
     1
 41
30.0
176
     1
 63
     7
421
 16777215
176
     1
 74
     0
176
     1
 91
        4
176
     1
 64
     7
176
     1
 65
   257
176
     1
 75
     1
176
     1
175
     1
176
     1
 42
1.0
176
     1
 92
        8
176
     1
 66
     7
176
     1
 43
1.0
176
     1
 76
     1
176
     1
 77
     6
176
     1
 78
     2
176
     1
 67
     7
176
     1
 79
     5
176
     1
170
     0
176
     1
171
     0
176
     1
290
     0
176
     1
 93
        1
176
     1
 44
0.0
176
     1
173
     0
176
     1
1001
ACAD
1000
AcDbSavedByObjectVersion
1070
     0
  0
VISUALSTYLE
  5
10C79
102
{ACAD_XDICTIONARY
360
10DA1
102
}
102
{ACAD_REACTORS
330
10C6D
102
}
330
10C6D
100
AcDbVisualStyle
  2
Brighten
 70
    12
177
     2
291
     1
 71
     2
176
     1
 72
     2
176
     1
 73
     0
176
     1
 90
        0
176
     1
 40
0.6
176
     1
 41
30.0
176
     1
 63
     7
421
 16777215
176
     1
 74
     1
176
     1
 91
        4
176
     1
 64
     7
176
     1
 65
   257
176
     1
 75
     1
176
     1
175
     1
176
     1
 42
1.0
176
     1
 92
        8
176
     1
 66
     7
176
     1
 43
1.0
176
     1
 76
     1
176
     1
 77
     6
176
     1
 78
     2
176
     1
 67
     7
176
     1
 79
     5
176
     1
170
     0
176
     1
171
     0
176
     1
290
     0
176
     1
 93
        1
176
     1
 44
50.0
176
     1
173
     0
176
     1
1001
ACAD
1000
AcDbSavedByObjectVersion
1070
     0
  0
VISUALSTYLE
  5
10C7D
102
{ACAD_XDICTIONARY
360
10DA9
102
}
102
{ACAD_REACTORS
330
10C6D
102
}
330
10C6D
100
AcDbVisualStyle
  2
ColorChange
 70
    16
177
     2
291
     1
 71
     2
176
     1
 72
     2
176
     1
 73
     3
176
     1
 90
        0
176
     1
 40
0.6
176
     1
 41
30.0
176
     1
 63
     8
421
  8421504
176
     1
 74
     1
176
     1
 91
        4
176
     1
 64
     7
176
     1
 65
   257
176
     1
 75
     1
176
     1
175
     1
176
     1
 42
1.0
176
     1
 92
        8
176
     1
 66
     8
424
  8421504
176
     1
 43
1.0
176
     1
 76
     1
176
     1
 77
     6
176
     1
 78
     2
176
     1
 67
     7
176
     1
 79
     5
176
     1
170
     0
176
     1
171
     0
176
     1
290
     0
176
     1
 93
        1
176
     1
 44
0.0
176
     1
173
     0
176
     1
1001
ACAD
1000
AcDbSavedByObjectVersion
1070
     0
  0
VISUALSTYLE
  5
10C76
102
{ACAD_XDICTIONARY
360
10D9B
102
}
102
{ACAD_REACTORS
330
10C6D
102
}
330
10C6D
100
AcDbVisualStyle
  2
Conceptual
 70
     9
177
     2
291
     0
 71
     3
176
     1
 72
     2
176
     1
 73
     0
176
     1
 90
        0
176
     1
 40
0.6
176
     1
 41
30.0
176
     1
 63
     7
421
 16777215
176
     1
 74
     2
176
     1
 91
        2
176
     1
 64
     7
176
     1
 65
   257
176
     1
 75
     1
176
     1
175
     1
176
     1
 42
179.0
176
     1
 92
        8
176
     1
 66
     7
176
     1
 43
1.0
176
     1
 76
     1
176
     1
 77
     6
176
     1
 78
     2
176
     1
 67
     7
176
     1
 79
     3
176
     1
170
     0
176
     1
171
     0
176
     1
290
     0
176
     1
 93
        1
176
     1
 44
0.0
176
     1
173
     0
176
     1
1001
ACAD
1000
AcDbSavedByObjectVersion
1070
     0
  0
VISUALSTYLE
  5
10C78
102
{ACAD_XDICTIONARY
360
10D9F
102
}
102
{ACAD_REACTORS
330
10C6D
102
}
330
10C6D
100
AcDbVisualStyle
  2
Dim
 70
    11
177
     2
291
     1
 71
     2
176
     1
 72
     2
176
     1
 73
     0
176
     1
 90
        0
176
     1
 40
0.6
176
     1
 41
30.0
176
     1
 63
     7
421
 16777215
176
     1
 74
     1
176
     1
 91
        4
176
     1
 64
     7
176
     1
 65
   257
176
     1
 75
     1
176
     1
175
     1
176
     1
 42
1.0
176
     1
 92
        8
176
     1
 66
     7
176
     1
 43
1.0
176
     1
 76
     1
176
     1
 77
     6
176
     1
 78
     2
176
     1
 67
     7
176
     1
 79
     5
176
     1
170
     0
176
     1
171
     0
176
     1
290
     0
176
     1
 93
        1
176
     1
 44
-50.0
176
     1
173
     0
176
     1
1001
ACAD
1000
AcDbSavedByObjectVersion
1070
     0
  0
VISUALSTYLE
  5
10C85
102
{ACAD_XDICTIONARY
360
10DB9
102
}
102
{ACAD_REACTORS
330
10C6D
102
}
330
10C6D
100
AcDbVisualStyle
  2
EdgeColorOff
 70
    22
177
     2
291
     1
 71
     2
176
     0
 72
     2
176
     0
 73
     0
176
     0
 90
        0
176
     0
 40
0.6
176
     0
 41
30.0
176
     0
 63
     7
421
 16777215
176
     0
 74
     1
176
     0
 91
        4
176
     0
 64
     7
176
     0
 65
   257
176
     0
 75
     1
176
     0
175
     1
176
     0
 42
1.0
176
     0
 92
        8
176
     2
 66
     7
176
     0
 43
1.0
176
     0
 76
     1
176
     0
 77
     6
176
     0
 78
     2
176
     0
 67
     7
176
     0
 79
     5
176
     0
170
     0
176
     0
171
     0
176
     0
290
     0
176
     0
 93
        1
176
     0
 44
0.0
176
     0
173
     0
176
     0
1001
ACAD
1000
AcDbSavedByObjectVersion
1070
     0
  0
VISUALSTYLE
  5
10C7C
102
{ACAD_XDICTIONARY
360
10DA7
102
}
102
{ACAD_REACTORS
330
10C6D
102
}
330
10C6D
100
AcDbVisualStyle
  2
Facepattern
 70
    15
177
     2
291
     1
 71
     2
176
     1
 72
     2
176
     1
 73
     0
176
     1
 90
        0
176
     1
 40
0.6
176
     1
 41
30.0
176
     1
 63
     7
421
 16777215
176
     1
 74
     1
176
     1
 91
        4
176
     1
 64
     7
176
     1
 65
   257
176
     1
 75
     1
176
     1
175
     1
176
     1
 42
1.0
176
     1
 92
        8
176
     1
 66
     7
176
     1
 43
1.0
176
     1
 76
     1
176
     1
 77
     6
176
     1
 78
     2
176
     1
 67
     7
176
     1
 79
     5
176
     1
170
     0
176
     1
171
     0
176
     1
290
     0
176
     1
 93
        1
176
     1
 44
0.0
176
     1
173
     0
176
     1
1001
ACAD
1000
AcDbSavedByObjectVersion
1070
     0
  0
VISUALSTYLE
  5
10C6E
102
{ACAD_XDICTIONARY
360
10D8B
102
}
102
{ACAD_REACTORS
330
10C6D
102
}
330
10C6D
100
AcDbVisualStyle
  2
Flat
 70
     0
177
     2
291
     1
 71
     2
176
     1
 72
     1
176
     1
 73
     1
176
     1
 90
        2
176
     1
 40
0.6
176
     1
 41
30.0
176
     1
 63
     7
421
 16777215
176
     1
 74
     0
176
     1
 91
        0
176
     1
 64
     7
176
     1
 65
   257
176
     1
 75
     1
176
     1
175
     1
176
     1
 42
1.0
176
     1
 92
        8
176
     1
 66
     7
176
     1
 43
1.0
176
     1
 76
     1
176
     1
 77
     6
176
     1
 78
     2
176
     1
 67
     7
176
     1
 79
     5
176
     1
170
     0
176
     1
171
     0
176
     1
290
     0
176
     1
 93
       13
176
     1
 44
0.0
176
     1
173
     0
176
     1
1001
ACAD
1000
AcDbSavedByObjectVersion
1070
     0
  0
VISUALSTYLE
  5
10C6F
102
{ACAD_XDICTIONARY
360
10D8D
102
}
102
{ACAD_REACTORS
330
10C6D
102
}
330
10C6D
100
AcDbVisualStyle
  2
FlatWithEdges
 70
     1
177
     2
291
     1
 71
     2
176
     1
 72
     1
176
     1
 73
     1
176
     1
 90
        2
176
     1
 40
0.6
176
     1
 41
30.0
176
     1
 63
     7
421
 16777215
176
     1
 74
     1
176
     1
 91
        0
176
     1
 64
     7
176
     1
 65
   257
176
     1
 75
     1
176
     1
175
     1
176
     1
 42
1.0
176
     1
 92
        0
176
     1
 66
   257
176
     1
 43
1.0
176
     1
 76
     1
176
     1
 77
     6
176
     1
 78
     2
176
     1
 67
     7
176
     1
 79
     5
176
     1
170
     0
176
     1
171
     0
176
     1
290
     0
176
     1
 93
       13
176
     1
 44
0.0
176
     1
173
     0
176
     1
1001
ACAD
1000
AcDbSavedByObjectVersion
1070
     0
  0
VISUALSTYLE
  5
10C70
102
{ACAD_XDICTIONARY
360
10D8F
102
}
102
{ACAD_REACTORS
330
10C6D
102
}
330
10C6D
100
AcDbVisualStyle
  2
Gouraud
 70
     2
177
     2
291
     1
 71
     2
176
     1
 72
     2
176
     1
 73
     1
176
     1
 90
        2
176
     1
 40
0.6
176
     1
 41
30.0
176
     1
 63
     7
421
 16777215
176
     1
 74
     0
176
     1
 91
        0
176
     1
 64
     7
176
     1
 65
   257
176
     1
 75
     1
176
     1
175
     1
176
     1
 42
1.0
176
     1
 92
        0
176
     1
 66
     7
176
     1
 43
1.0
176
     1
 76
     1
176
     1
 77
     6
176
     1
 78
     2
176
     1
 67
     7
176
     1
 79
     5
176
     1
170
     0
176
     1
171
     0
176
     1
290
     0
176
     1
 93
       13
176
     1
 44
0.0
176
     1
173
     0
176
     1
1001
ACAD
1000
AcDbSavedByObjectVersion
1070
     0
  0
VISUALSTYLE
  5
10C71
102
{ACAD_XDICTIONARY
360
10D91
102
}
102
{ACAD_REACTORS
330
10C6D
102
}
330
10C6D
100
AcDbVisualStyle
  2
GouraudWithEdges
 70
     3
177
     2
291
     1
 71
     2
176
     1
 72
     2
176
     1
 73
     1
176
     1
 90
        2
176
     1
 40
0.6
176
     1
 41
30.0
176
     1
 63
     7
421
 16777215
176
     1
 74
     1
176
     1
 91
        0
176
     1
 64
     7
176
     1
 65
   257
176
     1
 75
     1
176
     1
175
     1
176
     1
 42
1.0
176
     1
 92
        0
176
     1
 66
   257
176
     1
 43
1.0
176
     1
 76
     1
176
     1
 77
     6
176
     1
 78
     2
176
     1
 67
     7
176
     1
 79
     5
176
     1
170
     0
176
     1
171
     0
176
     1
290
     0
176
     1
 93
       13
176
     1
 44
0.0
176
     1
173
     0
176
     1
1001
ACAD
1000
AcDbSavedByObjectVersion
1070
     0
  0
VISUALSTYLE
  5
10C75
102
{ACAD_XDICTIONARY
360
10D99
102
}
102
{ACAD_REACTORS
330
10C6D
102
}
330
10C6D
100
AcDbVisualStyle
  2
Hidden
 70
     6
177
     2
291
     0
 71
     1
176
     1
 72
     2
176
     1
 73
     2
176
     1
 90
        0
176
     1
 40
0.6
176
     1
 41
30.0
176
     1
 63
     7
421
 16777215
176
     1
 74
     2
176
     1
 91
        2
176
     1
 64
     7
176
     1
 65
   257
176
     1
 75
     2
176
     1
175
     1
176
     1
 42
40.0
176
     1
 92
        0
176
     1
 66
   257
176
     1
 43
1.0
176
     1
 76
     1
176
     1
 77
     6
176
     1
 78
     2
176
     1
 67
     7
176
     1
 79
     3
176
     1
170
     0
176
     1
171
     0
176
     1
290
     0
176
     1
 93
        1
176
     1
 44
0.0
176
     1
173
     0
176
     1
1001
ACAD
1000
AcDbSavedByObjectVersion
1070
     0
  0
VISUALSTYLE
  5
10C83
102
{ACAD_XDICTIONARY
360
10DB5
102
}
102
{ACAD_REACTORS
330
10C6D
102
}
330
10C6D
100
AcDbVisualStyle
  2
JitterOff
 70
    20
177
     2
291
     1
 71
     2
176
     0
 72
     2
176
     0
 73
     0
176
     0
 90
        0
176
     0
 40
0.6
176
     0
 41
30.0
176
     0
 63
     7
421
 16777215
176
     0
 74
     1
176
     0
 91
        4
176
     0
 64
     7
176
     0
 65
   257
176
     0
 75
     1
176
     0
175
     1
176
     0
 42
1.0
176
     0
 92
       10
176
     2
 66
     7
176
     0
 43
1.0
176
     0
 76
     1
176
     0
 77
     6
176
     0
 78
     2
176
     0
 67
     7
176
     0
 79
     5
176
     0
170
     0
176
     0
171
     0
176
     0
290
     0
176
     0
 93
        1
176
     0
 44
0.0
176
     0
173
     0
176
     0
1001
ACAD
1000
AcDbSavedByObjectVersion
1070
     0
  0
VISUALSTYLE
  5
10C7B
102
{ACAD_XDICTIONARY
360
10DA5
102
}
102
{ACAD_REACTORS
330
10C6D
102
}
330
10C6D
100
AcDbVisualStyle
  2
Linepattern
 70
    14
177
     2
291
     1
 71
     2
176
     1
 72
     2
176
     1
 73
     0
176
     1
 90
        0
176
     1
 40
0.6
176
     1
 41
30.0
176
     1
 63
     7
421
 16777215
176
     1
 74
     1
176
     1
 91
        4
176
     1
 64
     7
176
     1
 65
   257
176
     1
 75
     7
176
     1
175
     7
176
     1
 42
1.0
176
     1
 92
        8
176
     1
 66
     7
176
     1
 43
1.0
176
     1
 76
     1
176
     1
 77
     6
176
     1
 78
     2
176
     1
 67
     7
176
     1
 79
     5
176
     1
170
     0
176
     1
171
     0
176
     1
290
     0
176
     1
 93
        1
176
     1
 44
0.0
176
     1
173
     0
176
     1
1001
ACAD
1000
AcDbSavedByObjectVersion
1070
     0
  0
VISUALSTYLE
  5
10C84
102
{ACAD_XDICTIONARY
360
10DB7
102
}
102
{ACAD_REACTORS
330
10C6D
102
}
330
10C6D
100
AcDbVisualStyle
  2
OverhangOff
 70
    21
177
     2
291
     1
 71
     2
176
     0
 72
     2
176
     0
 73
     0
176
     0
 90
        0
176
     0
 40
0.6
176
     0
 41
30.0
176
     0
 63
     7
421
 16777215
176
     0
 74
     1
176
     0
 91
        4
176
     0
 64
     7
176
     0
 65
   257
176
     0
 75
     1
176
     0
175
     1
176
     0
 42
1.0
176
     0
 92
        9
176
     2
 66
     7
176
     0
 43
1.0
176
     0
 76
     1
176
     0
 77
     6
176
     0
 78
     2
176
     0
 67
     7
176
     0
 79
     5
176
     0
170
     0
176
     0
171
     0
176
     0
290
     0
176
     0
 93
        1
176
     0
 44
0.0
176
     0
173
     0
176
     0
1001
ACAD
1000
AcDbSavedByObjectVersion
1070
     0
  0
VISUALSTYLE
  5
10C77
102
{ACAD_XDICTIONARY
360
10D9D
102
}
102
{ACAD_REACTORS
330
10C6D
102
}
330
10C6D
100
AcDbVisualStyle
  2
Realistic
 70
     8
177
     2
291
     0
 71
     2
176
     1
 72
     3
176
     1
 73
     0
176
     1
 90
        2
176
     1
 40
0.6
176
     1
 41
30.0
176
     1
 63
     7
421
 16777215
176
     1
 74
     0
176
     1
 91
        0
176
     1
 64
     7
176
     1
 65
   257
176
     1
 75
     1
176
     1
175
     1
176
     1
 42
1.0
176
     1
 92
        8
176
     1
 66
   257
176
     1
 43
1.0
176
     1
 76
     1
176
     1
 77
     6
176
     1
 78
     2
176
     1
 67
     7
176
     1
 79
     3
176
     1
170
     0
176
     1
171
     0
176
     1
290
     0
176
     1
 93
       13
176
     1
 44
0.0
176
     1
173
     0
176
     1
1001
ACAD
1000
AcDbSavedByObjectVersion
1070
     0
  0
VISUALSTYLE
  5
10C82
102
{ACAD_XDICTIONARY
360
10DB3
102
}
102
{ACAD_REACTORS
330
10C6D
102
}
330
10C6D
100
AcDbVisualStyle
  2
Shaded
 70
    27
177
     2
291
     0
 71
     2
176
     1
 72
     2
176
     1
 73
     1
176
     1
 90
        2
176
     1
 40
0.6
176
     1
 41
30.0
176
     1
 63
     7
421
 16777215
176
     1
 74
     0
176
     1
 91
        4
176
     1
 64
     7
176
     1
 65
   257
176
     1
 75
     1
176
     1
175
     1
176
     1
 42
1.0
176
     1
 92
        8
176
     1
 66
   257
176
     1
 43
1.0
176
     1
 76
     1
176
     1
 77
     6
176
     1
 78
     2
176
     1
 67
     8
425
  7895160
176
     1
 79
     3
176
     1
170
     0
176
     1
171
     0
176
     1
290
     0
176
     1
 93
        5
176
     1
 44
0.0
176
     1
173
     0
176
     1
1001
ACAD
1000
AcDbSavedByObjectVersion
1070
     0
  0
VISUALSTYLE
  5
10C81
102
{ACAD_XDICTIONARY
360
10DB1
102
}
102
{ACAD_REACTORS
330
10C6D
102
}
330
10C6D
100
AcDbVisualStyle
  2
Shaded with edges
 70
    26
177
     2
291
     0
 71
     2
176
     1
 72
     2
176
     1
 73
     1
176
     1
 90
        2
176
     1
 40
0.6
176
     1
 41
30.0
176
     1
 63
     7
421
 16777215
176
     1
 74
     1
176
     1
 91
        2
176
     1
 64
     7
176
     1
 65
   257
176
     1
 75
     2
176
     1
175
     1
176
     1
 42
1.0
176
     1
 92
        8
176
     1
 66
   257
176
     1
 43
1.0
176
     1
 76
     1
176
     1
 77
     6
176
     1
 78
     2
176
     1
 67
     7
176
     1
 79
     3
176
     1
170
     0
176
     1
171
     0
176
     1
290
     0
176
     1
 93
        5
176
     1
 44
0.0
176
     1
173
     0
176
     1
1001
ACAD
1000
AcDbSavedByObjectVersion
1070
     0
  0
VISUALSTYLE
  5
10C7E
102
{ACAD_XDICTIONARY
360
10DAB
102
}
102
{ACAD_REACTORS
330
10C6D
102
}
330
10C6D
100
AcDbVisualStyle
  2
Shades of Gray
 70
    23
177
     2
291
     0
 71
     2
176
     1
 72
     2
176
     1
 73
     3
176
     1
 90
        0
176
     1
 40
0.6
176
     1
 41
30.0
176
     1
 63
     7
421
 16777215
176
     1
 74
     2
176
     1
 91
        2
176
     1
 64
     7
176
     1
 65
     7
176
     1
 75
     1
176
     1
175
     1
176
     1
 42
40.0
176
     1
 92
        8
176
     1
 66
     7
176
     1
 43
1.0
176
     1
 76
     1
176
     1
 77
     6
176
     1
 78
     2
176
     1
 67
     7
176
     1
 79
     3
176
     1
170
     0
176
     1
171
     0
176
     1
290
     0
176
     1
 93
        1
176
     1
 44
0.0
176
     1
173
     0
176
     1
1001
ACAD
1000
AcDbSavedByObjectVersion
1070
     0
  0
VISUALSTYLE
  5
10C7F
102
{ACAD_XDICTIONARY
360
10DAD
102
}
102
{ACAD_REACTORS
330
10C6D
102
}
330
10C6D
100
AcDbVisualStyle
  2
Sketchy
 70
    24
177
     2
291
     0
 71
     1
176
     1
 72
     2
176
     1
 73
     2
176
     1
 90
        0
176
     1
 40
0.6
176
     1
 41
30.0
176
     1
 63
     7
421
 16777215
176
     1
 74
     2
176
     1
 91
        2
176
     1
 64
     7
176
     1
 65
     7
176
     1
 75
     1
176
     1
175
     1
176
     1
 42
40.0
176
     1
 92
       11
176
     1
 66
     7
176
     1
 43
1.0
176
     1
 76
     1
176
     1
 77
     6
176
     1
 78
     2
176
     1
 67
     7
176
     1
 79
     6
176
     1
170
     0
176
     1
171
     0
176
     1
290
     0
176
     1
 93
        1
176
     1
 44
0.0
176
     1
173
     0
176
     1
1001
ACAD
1000
AcDbSavedByObjectVersion
1070
     0
  0
VISUALSTYLE
  5
10C7A
102
{ACAD_XDICTIONARY
360
10DA3
102
}
102
{ACAD_REACTORS
330
10C6D
102
}
330
10C6D
100
AcDbVisualStyle
  2
Thicken
 70
    13
177
     2
291
     1
 71
     2
176
     1
 72
     2
176
     1
 73
     0
176
     1
 90
        0
176
     1
 40
0.6
176
     1
 41
30.0
176
     1
 63
     7
421
 16777215
176
     1
 74
     1
176
     1
 91
        4
176
     1
 64
     7
176
     1
 65
   257
176
     1
 75
     1
176
     1
175
     1
176
     1
 42
1.0
176
     1
 92
       12
176
     1
 66
     7
176
     1
 43
1.0
176
     1
 76
     1
176
     1
 77
     6
176
     1
 78
     2
176
     1
 67
     7
176
     1
 79
     5
176
     1
170
     0
176
     1
171
     0
176
     1
290
     0
176
     1
 93
        1
176
     1
 44
0.0
176
     1
173
     0
176
     1
1001
ACAD
1000
AcDbSavedByObjectVersion
1070
     0
  0
VISUALSTYLE
  5
10C74
102
{ACAD_XDICTIONARY
360
10D97
102
}
102
{ACAD_REACTORS
330
10C6D
102
}
330
10C6D
100
AcDbVisualStyle
  2
Wireframe
 70
     5
177
     2
291
     0
 71
     0
176
     1
 72
     2
176
     1
 73
     0
176
     1
 90
        0
176
     1
 40
0.6
176
     1
 41
30.0
176
     1
 63
     7
421
 16777215
176
     1
 74
     1
176
     1
 91
        4
176
     1
 64
     7
176
     1
 65
   257
176
     1
 75
     1
176
     1
175
     1
176
     1
 42
1.0
176
     1
 92
        0
176
     1
 66
   257
176
     1
 43
1.0
176
     1
 76
     1
176
     1
 77
     6
176
     1
 78
     2
176
     1
 67
     7
176
     1
 79
     3
176
     1
170
     0
176
     1
171
     0
176
     1
290
     0
176
     1
 93
        1
176
     1
 44
0.0
176
     1
173
     0
176
     1
1001
ACAD
1000
AcDbSavedByObjectVersion
1070
     0
  0
VISUALSTYLE
  5
10C80
102
{ACAD_XDICTIONARY
360
10DAF
102
}
102
{ACAD_REACTORS
330
10C6D
102
}
330
10C6D
100
AcDbVisualStyle
  2
X-Ray
 70
    25
177
     2
291
     0
 71
     2
176
     1
 72
     2
176
     1
 73
     1
176
     1
 90
        1
176
     1
 40
0.5
176
     1
 41
30.0
176
     1
 63
     7
421
 16777215
176
     1
 74
     1
176
     1
 91
        0
176
     1
 64
     7
176
     1
 65
   257
176
     1
 75
     1
176
     1
175
     1
176
     1
 42
1.0
176
     1
 92
        8
176
     1
 66
     7
176
     1
 43
1.0
176
     1
 76
     1
176
     1
 77
     6
176
     1
 78
     2
176
     1
 67
     7
176
     1
 79
     3
176
     1
170
     0
176
     1
171
     0
176
     1
290
     0
176
     1
 93
       13
176
     1
 44
0.0
176
     1
173
     0
176
     1
1001
ACAD
1000
AcDbSavedByObjectVersion
1070
     0
  0
DICTIONARYVAR
  5
10D84
102
{ACAD_REACTORS
330
10D7E
102
}
330
10D7E
100
DictionaryVariables
280
     0
  1
1:1
  0
DICTIONARYVAR
  5
10D80
102
{ACAD_REACTORS
330
10D7E
102
}
330
10D7E
100
DictionaryVariables
280
     0
  1
STANDARD
  0
DICTIONARYVAR
  5
10D7F
102
{ACAD_REACTORS
330
10D7E
102
}
330
10D7E
100
DictionaryVariables
280
     0
  1
STANDARD
  0
DICTIONARYVAR
  5
10D81
102
{ACAD_REACTORS
330
10D7E
102
}
330
10D7E
100
DictionaryVariables
280
     0
  1
Imperial24
  0
DICTIONARYVAR
  5
10D82
102
{ACAD_REACTORS
330
10D7E
102
}
330
10D7E
100
DictionaryVariables
280
     0
  1
Imperial24
  0
DICTIONARYVAR
  5
10D86
102
{ACAD_REACTORS
330
10D7E
102
}
330
10D7E
100
DictionaryVariables
280
     0
  1
1
  0
DICTIONARYVAR
  5
10D87
102
{ACAD_REACTORS
330
10D7E
102
}
330
10D7E
100
DictionaryVariables
280
     0
  1
15
  0
DICTIONARYVAR
  5
10D85
102
{ACAD_REACTORS
330
10D7E
102
}
330
10D7E
100
DictionaryVariables
280
     0
  1
0
  0
DICTIONARYVAR
  5
10D83
102
{ACAD_REACTORS
330
10D7E
102
}
330
10D7E
100
DictionaryVariables
280
     0
  1
0
  0
DICTIONARY
  5
10DBF
330
10C90
100
AcDbDictionary
280
     1
281
     1
  3
ACAD_XREC_ROUNDTRIP
360
10DC0
  0
DICTIONARY
  5
10C5E
330
10C5D
100
AcDbDictionary
280
     1
281
     1
  3
BUMPTILE
360
10C60
  3
DIFFUSETILE
360
10C5F
  3
OPACITYTILE
360
10C63
  3
REFLECTIONTILE
360
10C62
  3
REFRACTIONTILE
360
10C64
  3
SPECULARTILE
360
10C61
  0
DICTIONARY
  5
10C56
330
10C55
100
AcDbDictionary
280
     1
281
     1
  3
BUMPTILE
360
10C58
  3
DIFFUSETILE
360
10C57
  3
OPACITYTILE
360
10C5B
  3
REFLECTIONTILE
360
10C5A
  3
REFRACTIONTILE
360
10C5C
  3
SPECULARTILE
360
10C59
  0
DICTIONARY
  5
10C66
330
10C65
100
AcDbDictionary
280
     1
281
     1
  3
BUMPTILE
360
10C68
  3
DIFFUSETILE
360
10C67
  3
OPACITYTILE
360
10C6B
  3
REFLECTIONTILE
360
10C6A
  3
REFRACTIONTILE
360
10C6C
  3
SPECULARTILE
360
10C69
  0
DICTIONARY
  5
10DBB
330
10C8C
100
AcDbDictionary
280
     1
281
     1
  3
ACAD_XREC_ROUNDTRIP
360
10DBC
  0
DICTIONARY
  5
10DBD
330
10C8E
100
AcDbDictionary
280
     1
281
     1
  3
ACAD_XREC_ROUNDTRIP
360
10DBE
  0
DICTIONARY
  5
10D88
330
10C88
100
AcDbDictionary
280
     1
281
     1
  3
ACAD_ROUNDTRIP_2008_TABLESTYLE_CELLSTYLEMAP
360
10D89
  0
DICTIONARY
  5
10D95
330
10C73
100
AcDbDictionary
280
     1
281
     1
  3
ACAD_XREC_ROUNDTRIP
360
10D96
  0
DICTIONARY
  5
10D93
330
10C72
100
AcDbDictionary
280
     1
281
     1
  3
ACAD_XREC_ROUNDTRIP
360
10D94
  0
DICTIONARY
  5
10DA1
330
10C79
100
AcDbDictionary
280
     1
281
     1
  3
ACAD_XREC_ROUNDTRIP
360
10DA2
  0
DICTIONARY
  5
10DA9
330
10C7D
100
AcDbDictionary
280
     1
281
     1
  3
ACAD_XREC_ROUNDTRIP
360
10DAA
  0
DICTIONARY
  5
10D9B
330
10C76
100
AcDbDictionary
280
     1
281
     1
  3
ACAD_XREC_ROUNDTRIP
360
10D9C
  0
DICTIONARY
  5
10D9F
330
10C78
100
AcDbDictionary
280
     1
281
     1
  3
ACAD_XREC_ROUNDTRIP
360
10DA0
  0
DICTIONARY
  5
10DB9
330
10C85
100
AcDbDictionary
280
     1
281
     1
  3
ACAD_XREC_ROUNDTRIP
360
10DBA
  0
DICTIONARY
  5
10DA7
330
10C7C
100
AcDbDictionary
280
     1
281
     1
  3
ACAD_XREC_ROUNDTRIP
360
10DA8
  0
DICTIONARY
  5
10D8B
330
10C6E
100
AcDbDictionary
280
     1
281
     1
  3
ACAD_XREC_ROUNDTRIP
360
10D8C
  0
DICTIONARY
  5
10D8D
330
10C6F
100
AcDbDictionary
280
     1
281
     1
  3
ACAD_XREC_ROUNDTRIP
360
10D8E
  0
DICTIONARY
  5
10D8F
330
10C70
100
AcDbDictionary
280
     1
281
     1
  3
ACAD_XREC_ROUNDTRIP
360
10D90
  0
DICTIONARY
  5
10D91
330
10C71
100
AcDbDictionary
280
     1
281
     1
  3
ACAD_XREC_ROUNDTRIP
360
10D92
  0
DICTIONARY
  5
10D99
330
10C75
100
AcDbDictionary
280
     1
281
     1
  3
ACAD_XREC_ROUNDTRIP
360
10D9A
  0
DICTIONARY
  5
10DB5
330
10C83
100
AcDbDictionary
280
     1
281
     1
  3
ACAD_XREC_ROUNDTRIP
360
10DB6
  0
DICTIONARY
  5
10DA5
330
10C7B
100
AcDbDictionary
280
     1
281
     1
  3
ACAD_XREC_ROUNDTRIP
360
10DA6
  0
DICTIONARY
  5
10DB7
330
10C84
100
AcDbDictionary
280
     1
281
     1
  3
ACAD_XREC_ROUNDTRIP
360
10DB8
  0
DICTIONARY
  5
10D9D
330
10C77
100
AcDbDictionary
280
     1
281
     1
  3
ACAD_XREC_ROUNDTRIP
360
10D9E
  0
DICTIONARY
  5
10DB3
330
10C82
100
AcDbDictionary
280
     1
281
     1
  3
ACAD_XREC_ROUNDTRIP
360
10DB4
  0
DICTIONARY
  5
10DB1
330
10C81
100
AcDbDictionary
280
     1
281
     1
  3
ACAD_XREC_ROUNDTRIP
360
10DB2
  0
DICTIONARY
  5
10DAB
330
10C7E
100
AcDbDictionary
280
     1
281
     1
  3
ACAD_XREC_ROUNDTRIP
360
10DAC
  0
DICTIONARY
  5
10DAD
330
10C7F
100
AcDbDictionary
280
     1
281
     1
  3
ACAD_XREC_ROUNDTRIP
360
10DAE
  0
DICTIONARY
  5
10DA3
330
10C7A
100
AcDbDictionary
280
     1
281
     1
  3
ACAD_XREC_ROUNDTRIP
360
10DA4
  0
DICTIONARY
  5
10D97
330
10C74
100
AcDbDictionary
280
     1
281
     1
  3
ACAD_XREC_ROUNDTRIP
360
10D98
  0
DICTIONARY
  5
10DAF
330
10C80
100
AcDbDictionary
280
     1
281
     1
  3
ACAD_XREC_ROUNDTRIP
360
10DB0
  0
XRECORD
  5
10DC0
102
{ACAD_REACTORS
330
10DBF
102
}
330
10DBF
100
AcDbXrecord
280
     1
102
DISPLAYNAME
  1
Imperial24
102
FLAGS
 90
        0
  0
XRECORD
  5
10C60
102
{ACAD_REACTORS
330
10C5E
102
}
330
10C5E
100
AcDbXrecord
280
     1
270
     1
271
     1
  0
XRECORD
  5
10C5F
102
{ACAD_REACTORS
330
10C5E
102
}
330
10C5E
100
AcDbXrecord
280
     1
270
     1
271
     1
  0
XRECORD
  5
10C63
102
{ACAD_REACTORS
330
10C5E
102
}
330
10C5E
100
AcDbXrecord
280
     1
270
     1
271
     1
  0
XRECORD
  5
10C62
102
{ACAD_REACTORS
330
10C5E
102
}
330
10C5E
100
AcDbXrecord
280
     1
270
     1
271
     1
  0
XRECORD
  5
10C64
102
{ACAD_REACTORS
330
10C5E
102
}
330
10C5E
100
AcDbXrecord
280
     1
270
     1
271
     1
  0
XRECORD
  5
10C61
102
{ACAD_REACTORS
330
10C5E
102
}
330
10C5E
100
AcDbXrecord
280
     1
270
     1
271
     1
  0
XRECORD
  5
10C58
102
{ACAD_REACTORS
330
10C56
102
}
330
10C56
100
AcDbXrecord
280
     1
270
     1
271
     1
  0
XRECORD
  5
10C57
102
{ACAD_REACTORS
330
10C56
102
}
330
10C56
100
AcDbXrecord
280
     1
270
     1
271
     1
  0
XRECORD
  5
10C5B
102
{ACAD_REACTORS
330
10C56
102
}
330
10C56
100
AcDbXrecord
280
     1
270
     1
271
     1
  0
XRECORD
  5
10C5A
102
{ACAD_REACTORS
330
10C56
102
}
330
10C56
100
AcDbXrecord
280
     1
270
     1
271
     1
  0
XRECORD
  5
10C5C
102
{ACAD_REACTORS
330
10C56
102
}
330
10C56
100
AcDbXrecord
280
     1
270
     1
271
     1
  0
XRECORD
  5
10C59
102
{ACAD_REACTORS
330
10C56
102
}
330
10C56
100
AcDbXrecord
280
     1
270
     1
271
     1
  0
XRECORD
  5
10C68
102
{ACAD_REACTORS
330
10C66
102
}
330
10C66
100
AcDbXrecord
280
     1
270
     1
271
     1
  0
XRECORD
  5
10C67
102
{ACAD_REACTORS
330
10C66
102
}
330
10C66
100
AcDbXrecord
280
     1
270
     1
271
     1
  0
XRECORD
  5
10C6B
102
{ACAD_REACTORS
330
10C66
102
}
330
10C66
100
AcDbXrecord
280
     1
270
     1
271
     1
  0
XRECORD
  5
10C6A
102
{ACAD_REACTORS
330
10C66
102
}
330
10C66
100
AcDbXrecord
280
     1
270
     1
271
     1
  0
XRECORD
  5
10C6C
102
{ACAD_REACTORS
330
10C66
102
}
330
10C66
100
AcDbXrecord
280
     1
270
     1
271
     1
  0
XRECORD
  5
10C69
102
{ACAD_REACTORS
330
10C66
102
}
330
10C66
100
AcDbXrecord
280
     1
270
     1
271
     1
  0
XRECORD
  5
10DBC
102
{ACAD_REACTORS
330
10DBB
102
}
330
10DBB
100
AcDbXrecord
280
     1
102
ACAD_ROUNDTRIP_2012_MLEADER_STYLE
298
     1
  0
XRECORD
  5
10DBE
102
{ACAD_REACTORS
330
10DBD
102
}
330
10DBD
100
AcDbXrecord
280
     1
102
DISPLAYNAME
  1
Imperial24
102
FLAGS
 90
        0
  0
CELLSTYLEMAP
  5
10D89
102
{ACAD_REACTORS
330
10D88
102
}
330
10D88
100
AcDbCellStyleMap
 90
        3
300
CELLSTYLE
  1
TABLEFORMAT_BEGIN
 90
        5
170
     1
 91
        0
 92
    32768
 62
   257
 93
        1
300
CONTENTFORMAT
  1
CONTENTFORMAT_BEGIN
 90
        0
 91
        0
 92
      512
 93
        0
300

 40
0.0
140
1.0
 94
        5
 62
     0
340
DE77
144
0.25
309
CONTENTFORMAT_END
171
     0
 94
        0
309
TABLEFORMAT_END
  1
CELLSTYLE_BEGIN
 90
        1
 91
        1
300
_TITLE
309
CELLSTYLE_END
300
CELLSTYLE
  1
TABLEFORMAT_BEGIN
 90
        5
170
     1
 91
        0
 92
        0
 62
   257
 93
        1
300
CONTENTFORMAT
  1
CONTENTFORMAT_BEGIN
 90
        0
 91
        0
 92
      512
 93
        0
300

 40
0.0
140
1.0
 94
        5
 62
     0
340
DE77
144
0.18
309
CONTENTFORMAT_END
171
     0
 94
        0
309
TABLEFORMAT_END
  1
CELLSTYLE_BEGIN
 90
        2
 91
        1
300
_HEADER
309
CELLSTYLE_END
300
CELLSTYLE
  1
TABLEFORMAT_BEGIN
 90
        5
170
     1
 91
        0
 92
        0
 62
   257
 93
        1
300
CONTENTFORMAT
  1
CONTENTFORMAT_BEGIN
 90
        0
 91
        0
 92
      512
 93
        0
300

 40
0.0
140
1.0
 94
        2
 62
     0
340
DE77
144
0.18
309
CONTENTFORMAT_END
171
     0
 94
        0
309
TABLEFORMAT_END
  1
CELLSTYLE_BEGIN
 90
        3
 91
        2
300
_DATA
309
CELLSTYLE_END
  0
XRECORD
  5
10D96
102
{ACAD_REACTORS
330
10D95
102
}
330
10D95
100
AcDbXrecord
280
     1
102
RTVSPost2010Prop28
280
     1
102
RTVSPost2010PropOp28
 70
     1
102
RTVSPost2010Prop29
280
     1
102
RTVSPost2010PropOp29
 70
     1
102
RTVSPost2010Prop30
280
     0
102
RTVSPost2010PropOp30
 70
     1
102
RTVSPost2010Prop31
280
     0
102
RTVSPost2010PropOp31
 70
     1
102
RTVSPost2010Prop32
280
     0
102
RTVSPost2010PropOp32
 70
     1
102
RTVSPost2010Prop33
280
     0
102
RTVSPost2010PropOp33
 70
     1
102
RTVSPost2010Prop34
280
     0
102
RTVSPost2010PropOp34
 70
     1
102
RTVSPost2010Prop35
280
     0
102
RTVSPost2010PropOp35
 70
     1
102
RTVSPost2010Prop36
280
     0
102
RTVSPost2010PropOp36
 70
     1
102
RTVSPost2010Prop37
 90
       50
102
RTVSPost2010PropOp37
 70
     1
102
RTVSPost2010Prop38
140
0.0
102
RTVSPost2010PropOp38
 70
     1
102
RTVSPost2010Prop39
140
1.0
102
RTVSPost2010PropOp39
 70
     1
102
RTVSPost2010Prop40
 90
        0
102
RTVSPost2010PropOp40
 70
     1
102
RTVSPost2010Prop41ColorIndex
 90
       18
102
RTVSPost2010Prop41ColorRGB
 90
        0
102
RTVSPost2010PropOp41
 70
     1
102
RTVSPost2010Prop42
 90
       50
102
RTVSPost2010PropOp42
 70
     1
102
RTVSPost2010Prop43
 90
        3
102
RTVSPost2010PropOp43
 70
     1
102
RTVSPost2010Prop44ColorIndex
 90
        5
102
RTVSPost2010Prop44ColorRGB
 90
      255
102
RTVSPost2010PropOp44
 70
     1
102
RTVSPost2010Prop45
280
     0
102
RTVSPost2010PropOp45
 70
     1
102
RTVSPost2010Prop46
 90
       50
102
RTVSPost2010PropOp46
 70
     1
102
RTVSPost2010Prop47
 90
       50
102
RTVSPost2010PropOp47
 70
     1
102
RTVSPost2010Prop48
 90
       50
102
RTVSPost2010PropOp48
 70
     1
102
RTVSPost2010Prop49
280
     0
102
RTVSPost2010PropOp49
 70
     1
102
RTVSPost2010Prop50
 90
       50
102
RTVSPost2010PropOp50
 70
     1
102
RTVSPost2010Prop51ColorIndex
 90
      256
102
RTVSPost2010Prop51ColorRGB
 90
-16777216
102
RTVSPost2010PropOp51
 70
     0
102
RTVSPost2010Prop52
140
1.0
102
RTVSPost2010PropOp52
 70
     0
102
RTVSPost2010Prop53
 90
        2
102
RTVSPost2010PropOp53
 70
     1
102
RTVSPost2010Prop54
  1
strokes_ogs.tif
102
RTVSPost2010PropOp54
 70
     1
102
RTVSPost2010Prop55
280
     0
102
RTVSPost2010PropOp55
 70
     1
102
RTVSPost2010Prop56
140
1.0
102
RTVSPost2010PropOp56
 70
     1
102
RTVSPost2010Prop57
140
1.0
102
RTVSPost2010PropOp57
 70
     1
  0
XRECORD
  5
10D94
102
{ACAD_REACTORS
330
10D93
102
}
330
10D93
100
AcDbXrecord
280
     1
102
RTVSPost2010Prop28
280
     0
102
RTVSPost2010PropOp28
 70
     1
102
RTVSPost2010Prop29
280
     1
102
RTVSPost2010PropOp29
 70
     1
102
RTVSPost2010Prop30
280
     1
102
RTVSPost2010PropOp30
 70
     1
102
RTVSPost2010Prop31
280
     0
102
RTVSPost2010PropOp31
 70
     1
102
RTVSPost2010Prop32
280
     0
102
RTVSPost2010PropOp32
 70
     1
102
RTVSPost2010Prop33
280
     0
102
RTVSPost2010PropOp33
 70
     1
102
RTVSPost2010Prop34
280
     0
102
RTVSPost2010PropOp34
 70
     1
102
RTVSPost2010Prop35
280
     0
102
RTVSPost2010PropOp35
 70
     1
102
RTVSPost2010Prop36
280
     0
102
RTVSPost2010PropOp36
 70
     1
102
RTVSPost2010Prop37
 90
       50
102
RTVSPost2010PropOp37
 70
     1
102
RTVSPost2010Prop38
140
0.0
102
RTVSPost2010PropOp38
 70
     1
102
RTVSPost2010Prop39
140
1.0
102
RTVSPost2010PropOp39
 70
     1
102
RTVSPost2010Prop40
 90
        0
102
RTVSPost2010PropOp40
 70
     1
102
RTVSPost2010Prop41ColorIndex
 90
       18
102
RTVSPost2010Prop41ColorRGB
 90
        0
102
RTVSPost2010PropOp41
 70
     1
102
RTVSPost2010Prop42
 90
       50
102
RTVSPost2010PropOp42
 70
     1
102
RTVSPost2010Prop43
 90
        3
102
RTVSPost2010PropOp43
 70
     1
102
RTVSPost2010Prop44ColorIndex
 90
        5
102
RTVSPost2010Prop44ColorRGB
 90
      255
102
RTVSPost2010PropOp44
 70
     1
102
RTVSPost2010Prop45
280
     0
102
RTVSPost2010PropOp45
 70
     1
102
RTVSPost2010Prop46
 90
       50
102
RTVSPost2010PropOp46
 70
     1
102
RTVSPost2010Prop47
 90
       50
102
RTVSPost2010PropOp47
 70
     1
102
RTVSPost2010Prop48
 90
       50
102
RTVSPost2010PropOp48
 70
     1
102
RTVSPost2010Prop49
280
     0
102
RTVSPost2010PropOp49
 70
     1
102
RTVSPost2010Prop50
 90
       50
102
RTVSPost2010PropOp50
 70
     1
102
RTVSPost2010Prop51ColorIndex
 90
      256
102
RTVSPost2010Prop51ColorRGB
 90
-16777216
102
RTVSPost2010PropOp51
 70
     0
102
RTVSPost2010Prop52
140
1.0
102
RTVSPost2010PropOp52
 70
     0
102
RTVSPost2010Prop53
 90
        2
102
RTVSPost2010PropOp53
 70
     1
102
RTVSPost2010Prop54
  1
strokes_ogs.tif
102
RTVSPost2010PropOp54
 70
     1
102
RTVSPost2010Prop55
280
     0
102
RTVSPost2010PropOp55
 70
     1
102
RTVSPost2010Prop56
140
1.0
102
RTVSPost2010PropOp56
 70
     1
102
RTVSPost2010Prop57
140
1.0
102
RTVSPost2010PropOp57
 70
     1
  0
XRECORD
  5
10DA2
102
{ACAD_REACTORS
330
10DA1
102
}
330
10DA1
100
AcDbXrecord
280
     1
102
RTVSPost2010Prop28
280
     0
102
RTVSPost2010PropOp28
 70
     1
102
RTVSPost2010Prop29
280
     1
102
RTVSPost2010PropOp29
 70
     1
102
RTVSPost2010Prop30
280
     1
102
RTVSPost2010PropOp30
 70
     1
102
RTVSPost2010Prop31
280
     0
102
RTVSPost2010PropOp31
 70
     1
102
RTVSPost2010Prop32
280
     0
102
RTVSPost2010PropOp32
 70
     1
102
RTVSPost2010Prop33
280
     0
102
RTVSPost2010PropOp33
 70
     1
102
RTVSPost2010Prop34
280
     0
102
RTVSPost2010PropOp34
 70
     1
102
RTVSPost2010Prop35
280
     0
102
RTVSPost2010PropOp35
 70
     1
102
RTVSPost2010Prop36
280
     0
102
RTVSPost2010PropOp36
 70
     1
102
RTVSPost2010Prop37
 90
       50
102
RTVSPost2010PropOp37
 70
     1
102
RTVSPost2010Prop38
140
0.0
102
RTVSPost2010PropOp38
 70
     1
102
RTVSPost2010Prop39
140
1.0
102
RTVSPost2010PropOp39
 70
     1
102
RTVSPost2010Prop40
 90
        0
102
RTVSPost2010PropOp40
 70
     1
102
RTVSPost2010Prop41ColorIndex
 90
       18
102
RTVSPost2010Prop41ColorRGB
 90
        0
102
RTVSPost2010PropOp41
 70
     1
102
RTVSPost2010Prop42
 90
       50
102
RTVSPost2010PropOp42
 70
     1
102
RTVSPost2010Prop43
 90
        3
102
RTVSPost2010PropOp43
 70
     1
102
RTVSPost2010Prop44ColorIndex
 90
        5
102
RTVSPost2010Prop44ColorRGB
 90
      255
102
RTVSPost2010PropOp44
 70
     1
102
RTVSPost2010Prop45
280
     0
102
RTVSPost2010PropOp45
 70
     1
102
RTVSPost2010Prop46
 90
       50
102
RTVSPost2010PropOp46
 70
     1
102
RTVSPost2010Prop47
 90
       50
102
RTVSPost2010PropOp47
 70
     1
102
RTVSPost2010Prop48
 90
       50
102
RTVSPost2010PropOp48
 70
     1
102
RTVSPost2010Prop49
280
     0
102
RTVSPost2010PropOp49
 70
     1
102
RTVSPost2010Prop50
 90
       50
102
RTVSPost2010PropOp50
 70
     1
102
RTVSPost2010Prop51ColorIndex
 90
      256
102
RTVSPost2010Prop51ColorRGB
 90
-16777216
102
RTVSPost2010PropOp51
 70
     0
102
RTVSPost2010Prop52
140
1.0
102
RTVSPost2010PropOp52
 70
     0
102
RTVSPost2010Prop53
 90
        2
102
RTVSPost2010PropOp53
 70
     1
102
RTVSPost2010Prop54
  1
strokes_ogs.tif
102
RTVSPost2010PropOp54
 70
     1
102
RTVSPost2010Prop55
280
     0
102
RTVSPost2010PropOp55
 70
     1
102
RTVSPost2010Prop56
140
1.0
102
RTVSPost2010PropOp56
 70
     1
102
RTVSPost2010Prop57
140
1.0
102
RTVSPost2010PropOp57
 70
     1
  0
XRECORD
  5
10DAA
102
{ACAD_REACTORS
330
10DA9
102
}
330
10DA9
100
AcDbXrecord
280
     1
102
RTVSPost2010Prop28
280
     0
102
RTVSPost2010PropOp28
 70
     1
102
RTVSPost2010Prop29
280
     1
102
RTVSPost2010PropOp29
 70
     1
102
RTVSPost2010Prop30
280
     1
102
RTVSPost2010PropOp30
 70
     1
102
RTVSPost2010Prop31
280
     0
102
RTVSPost2010PropOp31
 70
     1
102
RTVSPost2010Prop32
280
     0
102
RTVSPost2010PropOp32
 70
     1
102
RTVSPost2010Prop33
280
     0
102
RTVSPost2010PropOp33
 70
     1
102
RTVSPost2010Prop34
280
     0
102
RTVSPost2010PropOp34
 70
     1
102
RTVSPost2010Prop35
280
     0
102
RTVSPost2010PropOp35
 70
     1
102
RTVSPost2010Prop36
280
     0
102
RTVSPost2010PropOp36
 70
     1
102
RTVSPost2010Prop37
 90
       50
102
RTVSPost2010PropOp37
 70
     1
102
RTVSPost2010Prop38
140
0.0
102
RTVSPost2010PropOp38
 70
     1
102
RTVSPost2010Prop39
140
1.0
102
RTVSPost2010PropOp39
 70
     1
102
RTVSPost2010Prop40
 90
        0
102
RTVSPost2010PropOp40
 70
     1
102
RTVSPost2010Prop41ColorIndex
 90
       18
102
RTVSPost2010Prop41ColorRGB
 90
        0
102
RTVSPost2010PropOp41
 70
     1
102
RTVSPost2010Prop42
 90
       50
102
RTVSPost2010PropOp42
 70
     1
102
RTVSPost2010Prop43
 90
        3
102
RTVSPost2010PropOp43
 70
     1
102
RTVSPost2010Prop44ColorIndex
 90
        5
102
RTVSPost2010Prop44ColorRGB
 90
      255
102
RTVSPost2010PropOp44
 70
     1
102
RTVSPost2010Prop45
280
     0
102
RTVSPost2010PropOp45
 70
     1
102
RTVSPost2010Prop46
 90
       50
102
RTVSPost2010PropOp46
 70
     1
102
RTVSPost2010Prop47
 90
       50
102
RTVSPost2010PropOp47
 70
     1
102
RTVSPost2010Prop48
 90
       50
102
RTVSPost2010PropOp48
 70
     1
102
RTVSPost2010Prop49
280
     0
102
RTVSPost2010PropOp49
 70
     1
102
RTVSPost2010Prop50
 90
       50
102
RTVSPost2010PropOp50
 70
     1
102
RTVSPost2010Prop51ColorIndex
 90
      256
102
RTVSPost2010Prop51ColorRGB
 90
-16777216
102
RTVSPost2010PropOp51
 70
     0
102
RTVSPost2010Prop52
140
1.0
102
RTVSPost2010PropOp52
 70
     0
102
RTVSPost2010Prop53
 90
        2
102
RTVSPost2010PropOp53
 70
     1
102
RTVSPost2010Prop54
  1
strokes_ogs.tif
102
RTVSPost2010PropOp54
 70
     1
102
RTVSPost2010Prop55
280
     0
102
RTVSPost2010PropOp55
 70
     1
102
RTVSPost2010Prop56
140
1.0
102
RTVSPost2010PropOp56
 70
     1
102
RTVSPost2010Prop57
140
1.0
102
RTVSPost2010PropOp57
 70
     1
  0
XRECORD
  5
10D9C
102
{ACAD_REACTORS
330
10D9B
102
}
330
10D9B
100
AcDbXrecord
280
     1
102
RTVSPost2010Prop28
280
     0
102
RTVSPost2010PropOp28
 70
     1
102
RTVSPost2010Prop29
280
     1
102
RTVSPost2010PropOp29
 70
     1
102
RTVSPost2010Prop30
280
     1
102
RTVSPost2010PropOp30
 70
     1
102
RTVSPost2010Prop31
280
     0
102
RTVSPost2010PropOp31
 70
     1
102
RTVSPost2010Prop32
280
     0
102
RTVSPost2010PropOp32
 70
     1
102
RTVSPost2010Prop33
280
     0
102
RTVSPost2010PropOp33
 70
     1
102
RTVSPost2010Prop34
280
     0
102
RTVSPost2010PropOp34
 70
     1
102
RTVSPost2010Prop35
280
     0
102
RTVSPost2010PropOp35
 70
     1
102
RTVSPost2010Prop36
280
     0
102
RTVSPost2010PropOp36
 70
     1
102
RTVSPost2010Prop37
 90
       50
102
RTVSPost2010PropOp37
 70
     1
102
RTVSPost2010Prop38
140
0.0
102
RTVSPost2010PropOp38
 70
     1
102
RTVSPost2010Prop39
140
1.0
102
RTVSPost2010PropOp39
 70
     1
102
RTVSPost2010Prop40
 90
        0
102
RTVSPost2010PropOp40
 70
     1
102
RTVSPost2010Prop41ColorIndex
 90
       18
102
RTVSPost2010Prop41ColorRGB
 90
        0
102
RTVSPost2010PropOp41
 70
     1
102
RTVSPost2010Prop42
 90
       50
102
RTVSPost2010PropOp42
 70
     1
102
RTVSPost2010Prop43
 90
        3
102
RTVSPost2010PropOp43
 70
     1
102
RTVSPost2010Prop44ColorIndex
 90
        5
102
RTVSPost2010Prop44ColorRGB
 90
      255
102
RTVSPost2010PropOp44
 70
     1
102
RTVSPost2010Prop45
280
     0
102
RTVSPost2010PropOp45
 70
     1
102
RTVSPost2010Prop46
 90
       50
102
RTVSPost2010PropOp46
 70
     1
102
RTVSPost2010Prop47
 90
       50
102
RTVSPost2010PropOp47
 70
     1
102
RTVSPost2010Prop48
 90
       50
102
RTVSPost2010PropOp48
 70
     1
102
RTVSPost2010Prop49
280
     0
102
RTVSPost2010PropOp49
 70
     1
102
RTVSPost2010Prop50
 90
       50
102
RTVSPost2010PropOp50
 70
     1
102
RTVSPost2010Prop51ColorIndex
 90
      256
102
RTVSPost2010Prop51ColorRGB
 90
-16777216
102
RTVSPost2010PropOp51
 70
     0
102
RTVSPost2010Prop52
140
1.0
102
RTVSPost2010PropOp52
 70
     0
102
RTVSPost2010Prop53
 90
        2
102
RTVSPost2010PropOp53
 70
     1
102
RTVSPost2010Prop54
  1
strokes_ogs.tif
102
RTVSPost2010PropOp54
 70
     1
102
RTVSPost2010Prop55
280
     0
102
RTVSPost2010PropOp55
 70
     1
102
RTVSPost2010Prop56
140
1.0
102
RTVSPost2010PropOp56
 70
     1
102
RTVSPost2010Prop57
140
1.0
102
RTVSPost2010PropOp57
 70
     1
  0
XRECORD
  5
10DA0
102
{ACAD_REACTORS
330
10D9F
102
}
330
10D9F
100
AcDbXrecord
280
     1
102
RTVSPost2010Prop28
280
     0
102
RTVSPost2010PropOp28
 70
     1
102
RTVSPost2010Prop29
280
     1
102
RTVSPost2010PropOp29
 70
     1
102
RTVSPost2010Prop30
280
     1
102
RTVSPost2010PropOp30
 70
     1
102
RTVSPost2010Prop31
280
     0
102
RTVSPost2010PropOp31
 70
     1
102
RTVSPost2010Prop32
280
     0
102
RTVSPost2010PropOp32
 70
     1
102
RTVSPost2010Prop33
280
     0
102
RTVSPost2010PropOp33
 70
     1
102
RTVSPost2010Prop34
280
     0
102
RTVSPost2010PropOp34
 70
     1
102
RTVSPost2010Prop35
280
     0
102
RTVSPost2010PropOp35
 70
     1
102
RTVSPost2010Prop36
280
     0
102
RTVSPost2010PropOp36
 70
     1
102
RTVSPost2010Prop37
 90
       50
102
RTVSPost2010PropOp37
 70
     1
102
RTVSPost2010Prop38
140
0.0
102
RTVSPost2010PropOp38
 70
     1
102
RTVSPost2010Prop39
140
1.0
102
RTVSPost2010PropOp39
 70
     1
102
RTVSPost2010Prop40
 90
        0
102
RTVSPost2010PropOp40
 70
     1
102
RTVSPost2010Prop41ColorIndex
 90
       18
102
RTVSPost2010Prop41ColorRGB
 90
        0
102
RTVSPost2010PropOp41
 70
     1
102
RTVSPost2010Prop42
 90
       50
102
RTVSPost2010PropOp42
 70
     1
102
RTVSPost2010Prop43
 90
        3
102
RTVSPost2010PropOp43
 70
     1
102
RTVSPost2010Prop44ColorIndex
 90
        5
102
RTVSPost2010Prop44ColorRGB
 90
      255
102
RTVSPost2010PropOp44
 70
     1
102
RTVSPost2010Prop45
280
     0
102
RTVSPost2010PropOp45
 70
     1
102
RTVSPost2010Prop46
 90
       50
102
RTVSPost2010PropOp46
 70
     1
102
RTVSPost2010Prop47
 90
       50
102
RTVSPost2010PropOp47
 70
     1
102
RTVSPost2010Prop48
 90
       50
102
RTVSPost2010PropOp48
 70
     1
102
RTVSPost2010Prop49
280
     0
102
RTVSPost2010PropOp49
 70
     1
102
RTVSPost2010Prop50
 90
       50
102
RTVSPost2010PropOp50
 70
     1
102
RTVSPost2010Prop51ColorIndex
 90
      256
102
RTVSPost2010Prop51ColorRGB
 90
-16777216
102
RTVSPost2010PropOp51
 70
     0
102
RTVSPost2010Prop52
140
1.0
102
RTVSPost2010PropOp52
 70
     0
102
RTVSPost2010Prop53
 90
        2
102
RTVSPost2010PropOp53
 70
     1
102
RTVSPost2010Prop54
  1
strokes_ogs.tif
102
RTVSPost2010PropOp54
 70
     1
102
RTVSPost2010Prop55
280
     0
102
RTVSPost2010PropOp55
 70
     1
102
RTVSPost2010Prop56
140
1.0
102
RTVSPost2010PropOp56
 70
     1
102
RTVSPost2010Prop57
140
1.0
102
RTVSPost2010PropOp57
 70
     1
  0
XRECORD
  5
10DBA
102
{ACAD_REACTORS
330
10DB9
102
}
330
10DB9
100
AcDbXrecord
280
     1
102
RTVSPost2010Prop28
280
     0
102
RTVSPost2010PropOp28
 70
     0
102
RTVSPost2010Prop29
280
     1
102
RTVSPost2010PropOp29
 70
     0
102
RTVSPost2010Prop30
280
     1
102
RTVSPost2010PropOp30
 70
     0
102
RTVSPost2010Prop31
280
     0
102
RTVSPost2010PropOp31
 70
     0
102
RTVSPost2010Prop32
280
     0
102
RTVSPost2010PropOp32
 70
     0
102
RTVSPost2010Prop33
280
     0
102
RTVSPost2010PropOp33
 70
     0
102
RTVSPost2010Prop34
280
     0
102
RTVSPost2010PropOp34
 70
     0
102
RTVSPost2010Prop35
280
     0
102
RTVSPost2010PropOp35
 70
     0
102
RTVSPost2010Prop36
280
     0
102
RTVSPost2010PropOp36
 70
     0
102
RTVSPost2010Prop37
 90
       50
102
RTVSPost2010PropOp37
 70
     0
102
RTVSPost2010Prop38
140
0.0
102
RTVSPost2010PropOp38
 70
     0
102
RTVSPost2010Prop39
140
1.0
102
RTVSPost2010PropOp39
 70
     0
102
RTVSPost2010Prop40
 90
        0
102
RTVSPost2010PropOp40
 70
     0
102
RTVSPost2010Prop41ColorIndex
 90
       18
102
RTVSPost2010Prop41ColorRGB
 90
        0
102
RTVSPost2010PropOp41
 70
     0
102
RTVSPost2010Prop42
 90
       50
102
RTVSPost2010PropOp42
 70
     0
102
RTVSPost2010Prop43
 90
        3
102
RTVSPost2010PropOp43
 70
     0
102
RTVSPost2010Prop44ColorIndex
 90
        5
102
RTVSPost2010Prop44ColorRGB
 90
      255
102
RTVSPost2010PropOp44
 70
     0
102
RTVSPost2010Prop45
280
     0
102
RTVSPost2010PropOp45
 70
     0
102
RTVSPost2010Prop46
 90
       50
102
RTVSPost2010PropOp46
 70
     0
102
RTVSPost2010Prop47
 90
       50
102
RTVSPost2010PropOp47
 70
     0
102
RTVSPost2010Prop48
 90
       50
102
RTVSPost2010PropOp48
 70
     0
102
RTVSPost2010Prop49
280
     0
102
RTVSPost2010PropOp49
 70
     0
102
RTVSPost2010Prop50
 90
       50
102
RTVSPost2010PropOp50
 70
     0
102
RTVSPost2010Prop51ColorIndex
 90
      256
102
RTVSPost2010Prop51ColorRGB
 90
-16777216
102
RTVSPost2010PropOp51
 70
     0
102
RTVSPost2010Prop52
140
1.0
102
RTVSPost2010PropOp52
 70
     0
102
RTVSPost2010Prop53
 90
        2
102
RTVSPost2010PropOp53
 70
     0
102
RTVSPost2010Prop54
  1
strokes_ogs.tif
102
RTVSPost2010PropOp54
 70
     0
102
RTVSPost2010Prop55
280
     0
102
RTVSPost2010PropOp55
 70
     0
102
RTVSPost2010Prop56
140
1.0
102
RTVSPost2010PropOp56
 70
     0
102
RTVSPost2010Prop57
140
1.0
102
RTVSPost2010PropOp57
 70
     0
  0
XRECORD
  5
10DA8
102
{ACAD_REACTORS
330
10DA7
102
}
330
10DA7
100
AcDbXrecord
280
     1
102
RTVSPost2010Prop28
280
     0
102
RTVSPost2010PropOp28
 70
     1
102
RTVSPost2010Prop29
280
     1
102
RTVSPost2010PropOp29
 70
     1
102
RTVSPost2010Prop30
280
     1
102
RTVSPost2010PropOp30
 70
     1
102
RTVSPost2010Prop31
280
     0
102
RTVSPost2010PropOp31
 70
     1
102
RTVSPost2010Prop32
280
     0
102
RTVSPost2010PropOp32
 70
     1
102
RTVSPost2010Prop33
280
     0
102
RTVSPost2010PropOp33
 70
     1
102
RTVSPost2010Prop34
280
     0
102
RTVSPost2010PropOp34
 70
     1
102
RTVSPost2010Prop35
280
     0
102
RTVSPost2010PropOp35
 70
     1
102
RTVSPost2010Prop36
280
     0
102
RTVSPost2010PropOp36
 70
     1
102
RTVSPost2010Prop37
 90
       50
102
RTVSPost2010PropOp37
 70
     1
102
RTVSPost2010Prop38
140
0.0
102
RTVSPost2010PropOp38
 70
     1
102
RTVSPost2010Prop39
140
1.0
102
RTVSPost2010PropOp39
 70
     1
102
RTVSPost2010Prop40
 90
        0
102
RTVSPost2010PropOp40
 70
     1
102
RTVSPost2010Prop41ColorIndex
 90
       18
102
RTVSPost2010Prop41ColorRGB
 90
        0
102
RTVSPost2010PropOp41
 70
     1
102
RTVSPost2010Prop42
 90
       50
102
RTVSPost2010PropOp42
 70
     1
102
RTVSPost2010Prop43
 90
        3
102
RTVSPost2010PropOp43
 70
     1
102
RTVSPost2010Prop44ColorIndex
 90
        5
102
RTVSPost2010Prop44ColorRGB
 90
      255
102
RTVSPost2010PropOp44
 70
     1
102
RTVSPost2010Prop45
280
     0
102
RTVSPost2010PropOp45
 70
     1
102
RTVSPost2010Prop46
 90
       50
102
RTVSPost2010PropOp46
 70
     1
102
RTVSPost2010Prop47
 90
       50
102
RTVSPost2010PropOp47
 70
     1
102
RTVSPost2010Prop48
 90
       50
102
RTVSPost2010PropOp48
 70
     1
102
RTVSPost2010Prop49
280
     0
102
RTVSPost2010PropOp49
 70
     1
102
RTVSPost2010Prop50
 90
       50
102
RTVSPost2010PropOp50
 70
     1
102
RTVSPost2010Prop51ColorIndex
 90
      256
102
RTVSPost2010Prop51ColorRGB
 90
-16777216
102
RTVSPost2010PropOp51
 70
     0
102
RTVSPost2010Prop52
140
1.0
102
RTVSPost2010PropOp52
 70
     0
102
RTVSPost2010Prop53
 90
        2
102
RTVSPost2010PropOp53
 70
     1
102
RTVSPost2010Prop54
  1
strokes_ogs.tif
102
RTVSPost2010PropOp54
 70
     1
102
RTVSPost2010Prop55
280
     0
102
RTVSPost2010PropOp55
 70
     1
102
RTVSPost2010Prop56
140
1.0
102
RTVSPost2010PropOp56
 70
     1
102
RTVSPost2010Prop57
140
1.0
102
RTVSPost2010PropOp57
 70
     1
  0
XRECORD
  5
10D8C
102
{ACAD_REACTORS
330
10D8B
102
}
330
10D8B
100
AcDbXrecord
280
     1
102
RTVSPost2010Prop28
280
     0
102
RTVSPost2010PropOp28
 70
     1
102
RTVSPost2010Prop29
280
     1
102
RTVSPost2010PropOp29
 70
     1
102
RTVSPost2010Prop30
280
     1
102
RTVSPost2010PropOp30
 70
     1
102
RTVSPost2010Prop31
280
     0
102
RTVSPost2010PropOp31
 70
     1
102
RTVSPost2010Prop32
280
     0
102
RTVSPost2010PropOp32
 70
     1
102
RTVSPost2010Prop33
280
     0
102
RTVSPost2010PropOp33
 70
     1
102
RTVSPost2010Prop34
280
     0
102
RTVSPost2010PropOp34
 70
     1
102
RTVSPost2010Prop35
280
     0
102
RTVSPost2010PropOp35
 70
     1
102
RTVSPost2010Prop36
280
     0
102
RTVSPost2010PropOp36
 70
     1
102
RTVSPost2010Prop37
 90
       50
102
RTVSPost2010PropOp37
 70
     1
102
RTVSPost2010Prop38
140
0.0
102
RTVSPost2010PropOp38
 70
     1
102
RTVSPost2010Prop39
140
1.0
102
RTVSPost2010PropOp39
 70
     1
102
RTVSPost2010Prop40
 90
        0
102
RTVSPost2010PropOp40
 70
     1
102
RTVSPost2010Prop41ColorIndex
 90
       18
102
RTVSPost2010Prop41ColorRGB
 90
        0
102
RTVSPost2010PropOp41
 70
     1
102
RTVSPost2010Prop42
 90
       50
102
RTVSPost2010PropOp42
 70
     1
102
RTVSPost2010Prop43
 90
        3
102
RTVSPost2010PropOp43
 70
     1
102
RTVSPost2010Prop44ColorIndex
 90
        5
102
RTVSPost2010Prop44ColorRGB
 90
      255
102
RTVSPost2010PropOp44
 70
     1
102
RTVSPost2010Prop45
280
     0
102
RTVSPost2010PropOp45
 70
     1
102
RTVSPost2010Prop46
 90
       50
102
RTVSPost2010PropOp46
 70
     1
102
RTVSPost2010Prop47
 90
       50
102
RTVSPost2010PropOp47
 70
     1
102
RTVSPost2010Prop48
 90
       50
102
RTVSPost2010PropOp48
 70
     1
102
RTVSPost2010Prop49
280
     0
102
RTVSPost2010PropOp49
 70
     1
102
RTVSPost2010Prop50
 90
       50
102
RTVSPost2010PropOp50
 70
     1
102
RTVSPost2010Prop51ColorIndex
 90
      256
102
RTVSPost2010Prop51ColorRGB
 90
-16777216
102
RTVSPost2010PropOp51
 70
     0
102
RTVSPost2010Prop52
140
1.0
102
RTVSPost2010PropOp52
 70
     0
102
RTVSPost2010Prop53
 90
        2
102
RTVSPost2010PropOp53
 70
     1
102
RTVSPost2010Prop54
  1
strokes_ogs.tif
102
RTVSPost2010PropOp54
 70
     1
102
RTVSPost2010Prop55
280
     0
102
RTVSPost2010PropOp55
 70
     1
102
RTVSPost2010Prop56
140
1.0
102
RTVSPost2010PropOp56
 70
     1
102
RTVSPost2010Prop57
140
1.0
102
RTVSPost2010PropOp57
 70
     1
  0
XRECORD
  5
10D8E
102
{ACAD_REACTORS
330
10D8D
102
}
330
10D8D
100
AcDbXrecord
280
     1
102
RTVSPost2010Prop28
280
     0
102
RTVSPost2010PropOp28
 70
     1
102
RTVSPost2010Prop29
280
     1
102
RTVSPost2010PropOp29
 70
     1
102
RTVSPost2010Prop30
280
     1
102
RTVSPost2010PropOp30
 70
     1
102
RTVSPost2010Prop31
280
     0
102
RTVSPost2010PropOp31
 70
     1
102
RTVSPost2010Prop32
280
     0
102
RTVSPost2010PropOp32
 70
     1
102
RTVSPost2010Prop33
280
     0
102
RTVSPost2010PropOp33
 70
     1
102
RTVSPost2010Prop34
280
     0
102
RTVSPost2010PropOp34
 70
     1
102
RTVSPost2010Prop35
280
     0
102
RTVSPost2010PropOp35
 70
     1
102
RTVSPost2010Prop36
280
     0
102
RTVSPost2010PropOp36
 70
     1
102
RTVSPost2010Prop37
 90
       50
102
RTVSPost2010PropOp37
 70
     1
102
RTVSPost2010Prop38
140
0.0
102
RTVSPost2010PropOp38
 70
     1
102
RTVSPost2010Prop39
140
1.0
102
RTVSPost2010PropOp39
 70
     1
102
RTVSPost2010Prop40
 90
        0
102
RTVSPost2010PropOp40
 70
     1
102
RTVSPost2010Prop41ColorIndex
 90
       18
102
RTVSPost2010Prop41ColorRGB
 90
        0
102
RTVSPost2010PropOp41
 70
     1
102
RTVSPost2010Prop42
 90
       50
102
RTVSPost2010PropOp42
 70
     1
102
RTVSPost2010Prop43
 90
        3
102
RTVSPost2010PropOp43
 70
     1
102
RTVSPost2010Prop44ColorIndex
 90
        5
102
RTVSPost2010Prop44ColorRGB
 90
      255
102
RTVSPost2010PropOp44
 70
     1
102
RTVSPost2010Prop45
280
     0
102
RTVSPost2010PropOp45
 70
     1
102
RTVSPost2010Prop46
 90
       50
102
RTVSPost2010PropOp46
 70
     1
102
RTVSPost2010Prop47
 90
       50
102
RTVSPost2010PropOp47
 70
     1
102
RTVSPost2010Prop48
 90
       50
102
RTVSPost2010PropOp48
 70
     1
102
RTVSPost2010Prop49
280
     0
102
RTVSPost2010PropOp49
 70
     1
102
RTVSPost2010Prop50
 90
       50
102
RTVSPost2010PropOp50
 70
     1
102
RTVSPost2010Prop51ColorIndex
 90
      256
102
RTVSPost2010Prop51ColorRGB
 90
-16777216
102
RTVSPost2010PropOp51
 70
     0
102
RTVSPost2010Prop52
140
1.0
102
RTVSPost2010PropOp52
 70
     0
102
RTVSPost2010Prop53
 90
        2
102
RTVSPost2010PropOp53
 70
     1
102
RTVSPost2010Prop54
  1
strokes_ogs.tif
102
RTVSPost2010PropOp54
 70
     1
102
RTVSPost2010Prop55
280
     0
102
RTVSPost2010PropOp55
 70
     1
102
RTVSPost2010Prop56
140
1.0
102
RTVSPost2010PropOp56
 70
     1
102
RTVSPost2010Prop57
140
1.0
102
RTVSPost2010PropOp57
 70
     1
  0
XRECORD
  5
10D90
102
{ACAD_REACTORS
330
10D8F
102
}
330
10D8F
100
AcDbXrecord
280
     1
102
RTVSPost2010Prop28
280
     0
102
RTVSPost2010PropOp28
 70
     1
102
RTVSPost2010Prop29
280
     1
102
RTVSPost2010PropOp29
 70
     1
102
RTVSPost2010Prop30
280
     1
102
RTVSPost2010PropOp30
 70
     1
102
RTVSPost2010Prop31
280
     0
102
RTVSPost2010PropOp31
 70
     1
102
RTVSPost2010Prop32
280
     0
102
RTVSPost2010PropOp32
 70
     1
102
RTVSPost2010Prop33
280
     0
102
RTVSPost2010PropOp33
 70
     1
102
RTVSPost2010Prop34
280
     0
102
RTVSPost2010PropOp34
 70
     1
102
RTVSPost2010Prop35
280
     0
102
RTVSPost2010PropOp35
 70
     1
102
RTVSPost2010Prop36
280
     0
102
RTVSPost2010PropOp36
 70
     1
102
RTVSPost2010Prop37
 90
       50
102
RTVSPost2010PropOp37
 70
     1
102
RTVSPost2010Prop38
140
0.0
102
RTVSPost2010PropOp38
 70
     1
102
RTVSPost2010Prop39
140
1.0
102
RTVSPost2010PropOp39
 70
     1
102
RTVSPost2010Prop40
 90
        0
102
RTVSPost2010PropOp40
 70
     1
102
RTVSPost2010Prop41ColorIndex
 90
       18
102
RTVSPost2010Prop41ColorRGB
 90
        0
102
RTVSPost2010PropOp41
 70
     1
102
RTVSPost2010Prop42
 90
       50
102
RTVSPost2010PropOp42
 70
     1
102
RTVSPost2010Prop43
 90
        3
102
RTVSPost2010PropOp43
 70
     1
102
RTVSPost2010Prop44ColorIndex
 90
        5
102
RTVSPost2010Prop44ColorRGB
 90
      255
102
RTVSPost2010PropOp44
 70
     1
102
RTVSPost2010Prop45
280
     0
102
RTVSPost2010PropOp45
 70
     1
102
RTVSPost2010Prop46
 90
       50
102
RTVSPost2010PropOp46
 70
     1
102
RTVSPost2010Prop47
 90
       50
102
RTVSPost2010PropOp47
 70
     1
102
RTVSPost2010Prop48
 90
       50
102
RTVSPost2010PropOp48
 70
     1
102
RTVSPost2010Prop49
280
     0
102
RTVSPost2010PropOp49
 70
     1
102
RTVSPost2010Prop50
 90
       50
102
RTVSPost2010PropOp50
 70
     1
102
RTVSPost2010Prop51ColorIndex
 90
      256
102
RTVSPost2010Prop51ColorRGB
 90
-16777216
102
RTVSPost2010PropOp51
 70
     0
102
RTVSPost2010Prop52
140
1.0
102
RTVSPost2010PropOp52
 70
     0
102
RTVSPost2010Prop53
 90
        2
102
RTVSPost2010PropOp53
 70
     1
102
RTVSPost2010Prop54
  1
strokes_ogs.tif
102
RTVSPost2010PropOp54
 70
     1
102
RTVSPost2010Prop55
280
     0
102
RTVSPost2010PropOp55
 70
     1
102
RTVSPost2010Prop56
140
1.0
102
RTVSPost2010PropOp56
 70
     1
102
RTVSPost2010Prop57
140
1.0
102
RTVSPost2010PropOp57
 70
     1
  0
XRECORD
  5
10D92
102
{ACAD_REACTORS
330
10D91
102
}
330
10D91
100
AcDbXrecord
280
     1
102
RTVSPost2010Prop28
280
     0
102
RTVSPost2010PropOp28
 70
     1
102
RTVSPost2010Prop29
280
     1
102
RTVSPost2010PropOp29
 70
     1
102
RTVSPost2010Prop30
280
     1
102
RTVSPost2010PropOp30
 70
     1
102
RTVSPost2010Prop31
280
     0
102
RTVSPost2010PropOp31
 70
     1
102
RTVSPost2010Prop32
280
     0
102
RTVSPost2010PropOp32
 70
     1
102
RTVSPost2010Prop33
280
     0
102
RTVSPost2010PropOp33
 70
     1
102
RTVSPost2010Prop34
280
     0
102
RTVSPost2010PropOp34
 70
     1
102
RTVSPost2010Prop35
280
     0
102
RTVSPost2010PropOp35
 70
     1
102
RTVSPost2010Prop36
280
     0
102
RTVSPost2010PropOp36
 70
     1
102
RTVSPost2010Prop37
 90
       50
102
RTVSPost2010PropOp37
 70
     1
102
RTVSPost2010Prop38
140
0.0
102
RTVSPost2010PropOp38
 70
     1
102
RTVSPost2010Prop39
140
1.0
102
RTVSPost2010PropOp39
 70
     1
102
RTVSPost2010Prop40
 90
        0
102
RTVSPost2010PropOp40
 70
     1
102
RTVSPost2010Prop41ColorIndex
 90
       18
102
RTVSPost2010Prop41ColorRGB
 90
        0
102
RTVSPost2010PropOp41
 70
     1
102
RTVSPost2010Prop42
 90
       50
102
RTVSPost2010PropOp42
 70
     1
102
RTVSPost2010Prop43
 90
        3
102
RTVSPost2010PropOp43
 70
     1
102
RTVSPost2010Prop44ColorIndex
 90
        5
102
RTVSPost2010Prop44ColorRGB
 90
      255
102
RTVSPost2010PropOp44
 70
     1
102
RTVSPost2010Prop45
280
     0
102
RTVSPost2010PropOp45
 70
     1
102
RTVSPost2010Prop46
 90
       50
102
RTVSPost2010PropOp46
 70
     1
102
RTVSPost2010Prop47
 90
       50
102
RTVSPost2010PropOp47
 70
     1
102
RTVSPost2010Prop48
 90
       50
102
RTVSPost2010PropOp48
 70
     1
102
RTVSPost2010Prop49
280
     0
102
RTVSPost2010PropOp49
 70
     1
102
RTVSPost2010Prop50
 90
       50
102
RTVSPost2010PropOp50
 70
     1
102
RTVSPost2010Prop51ColorIndex
 90
      256
102
RTVSPost2010Prop51ColorRGB
 90
-16777216
102
RTVSPost2010PropOp51
 70
     0
102
RTVSPost2010Prop52
140
1.0
102
RTVSPost2010PropOp52
 70
     0
102
RTVSPost2010Prop53
 90
        2
102
RTVSPost2010PropOp53
 70
     1
102
RTVSPost2010Prop54
  1
strokes_ogs.tif
102
RTVSPost2010PropOp54
 70
     1
102
RTVSPost2010Prop55
280
     0
102
RTVSPost2010PropOp55
 70
     1
102
RTVSPost2010Prop56
140
1.0
102
RTVSPost2010PropOp56
 70
     1
102
RTVSPost2010Prop57
140
1.0
102
RTVSPost2010PropOp57
 70
     1
  0
XRECORD
  5
10D9A
102
{ACAD_REACTORS
330
10D99
102
}
330
10D99
100
AcDbXrecord
280
     1
102
RTVSPost2010Prop28
280
     0
102
RTVSPost2010PropOp28
 70
     1
102
RTVSPost2010Prop29
280
     1
102
RTVSPost2010PropOp29
 70
     1
102
RTVSPost2010Prop30
280
     1
102
RTVSPost2010PropOp30
 70
     1
102
RTVSPost2010Prop31
280
     0
102
RTVSPost2010PropOp31
 70
     1
102
RTVSPost2010Prop32
280
     0
102
RTVSPost2010PropOp32
 70
     1
102
RTVSPost2010Prop33
280
     0
102
RTVSPost2010PropOp33
 70
     1
102
RTVSPost2010Prop34
280
     0
102
RTVSPost2010PropOp34
 70
     1
102
RTVSPost2010Prop35
280
     0
102
RTVSPost2010PropOp35
 70
     1
102
RTVSPost2010Prop36
280
     0
102
RTVSPost2010PropOp36
 70
     1
102
RTVSPost2010Prop37
 90
       50
102
RTVSPost2010PropOp37
 70
     1
102
RTVSPost2010Prop38
140
0.0
102
RTVSPost2010PropOp38
 70
     1
102
RTVSPost2010Prop39
140
1.0
102
RTVSPost2010PropOp39
 70
     1
102
RTVSPost2010Prop40
 90
        0
102
RTVSPost2010PropOp40
 70
     1
102
RTVSPost2010Prop41ColorIndex
 90
       18
102
RTVSPost2010Prop41ColorRGB
 90
        0
102
RTVSPost2010PropOp41
 70
     1
102
RTVSPost2010Prop42
 90
       50
102
RTVSPost2010PropOp42
 70
     1
102
RTVSPost2010Prop43
 90
        3
102
RTVSPost2010PropOp43
 70
     1
102
RTVSPost2010Prop44ColorIndex
 90
        5
102
RTVSPost2010Prop44ColorRGB
 90
      255
102
RTVSPost2010PropOp44
 70
     1
102
RTVSPost2010Prop45
280
     0
102
RTVSPost2010PropOp45
 70
     1
102
RTVSPost2010Prop46
 90
       50
102
RTVSPost2010PropOp46
 70
     1
102
RTVSPost2010Prop47
 90
       50
102
RTVSPost2010PropOp47
 70
     1
102
RTVSPost2010Prop48
 90
       50
102
RTVSPost2010PropOp48
 70
     1
102
RTVSPost2010Prop49
280
     0
102
RTVSPost2010PropOp49
 70
     1
102
RTVSPost2010Prop50
 90
       50
102
RTVSPost2010PropOp50
 70
     1
102
RTVSPost2010Prop51ColorIndex
 90
      256
102
RTVSPost2010Prop51ColorRGB
 90
-16777216
102
RTVSPost2010PropOp51
 70
     0
102
RTVSPost2010Prop52
140
1.0
102
RTVSPost2010PropOp52
 70
     0
102
RTVSPost2010Prop53
 90
        2
102
RTVSPost2010PropOp53
 70
     1
102
RTVSPost2010Prop54
  1
strokes_ogs.tif
102
RTVSPost2010PropOp54
 70
     1
102
RTVSPost2010Prop55
280
     0
102
RTVSPost2010PropOp55
 70
     1
102
RTVSPost2010Prop56
140
1.0
102
RTVSPost2010PropOp56
 70
     1
102
RTVSPost2010Prop57
140
1.0
102
RTVSPost2010PropOp57
 70
     1
  0
XRECORD
  5
10DB6
102
{ACAD_REACTORS
330
10DB5
102
}
330
10DB5
100
AcDbXrecord
280
     1
102
RTVSPost2010Prop28
280
     0
102
RTVSPost2010PropOp28
 70
     0
102
RTVSPost2010Prop29
280
     1
102
RTVSPost2010PropOp29
 70
     0
102
RTVSPost2010Prop30
280
     1
102
RTVSPost2010PropOp30
 70
     0
102
RTVSPost2010Prop31
280
     0
102
RTVSPost2010PropOp31
 70
     0
102
RTVSPost2010Prop32
280
     0
102
RTVSPost2010PropOp32
 70
     0
102
RTVSPost2010Prop33
280
     0
102
RTVSPost2010PropOp33
 70
     0
102
RTVSPost2010Prop34
280
     0
102
RTVSPost2010PropOp34
 70
     0
102
RTVSPost2010Prop35
280
     0
102
RTVSPost2010PropOp35
 70
     0
102
RTVSPost2010Prop36
280
     0
102
RTVSPost2010PropOp36
 70
     0
102
RTVSPost2010Prop37
 90
       50
102
RTVSPost2010PropOp37
 70
     0
102
RTVSPost2010Prop38
140
0.0
102
RTVSPost2010PropOp38
 70
     0
102
RTVSPost2010Prop39
140
1.0
102
RTVSPost2010PropOp39
 70
     0
102
RTVSPost2010Prop40
 90
        0
102
RTVSPost2010PropOp40
 70
     0
102
RTVSPost2010Prop41ColorIndex
 90
       18
102
RTVSPost2010Prop41ColorRGB
 90
        0
102
RTVSPost2010PropOp41
 70
     0
102
RTVSPost2010Prop42
 90
       50
102
RTVSPost2010PropOp42
 70
     0
102
RTVSPost2010Prop43
 90
        3
102
RTVSPost2010PropOp43
 70
     0
102
RTVSPost2010Prop44ColorIndex
 90
        5
102
RTVSPost2010Prop44ColorRGB
 90
      255
102
RTVSPost2010PropOp44
 70
     0
102
RTVSPost2010Prop45
280
     0
102
RTVSPost2010PropOp45
 70
     0
102
RTVSPost2010Prop46
 90
       50
102
RTVSPost2010PropOp46
 70
     0
102
RTVSPost2010Prop47
 90
       50
102
RTVSPost2010PropOp47
 70
     0
102
RTVSPost2010Prop48
 90
       50
102
RTVSPost2010PropOp48
 70
     0
102
RTVSPost2010Prop49
280
     0
102
RTVSPost2010PropOp49
 70
     0
102
RTVSPost2010Prop50
 90
       50
102
RTVSPost2010PropOp50
 70
     0
102
RTVSPost2010Prop51ColorIndex
 90
      256
102
RTVSPost2010Prop51ColorRGB
 90
-16777216
102
RTVSPost2010PropOp51
 70
     0
102
RTVSPost2010Prop52
140
1.0
102
RTVSPost2010PropOp52
 70
     0
102
RTVSPost2010Prop53
 90
        2
102
RTVSPost2010PropOp53
 70
     0
102
RTVSPost2010Prop54
  1
strokes_ogs.tif
102
RTVSPost2010PropOp54
 70
     0
102
RTVSPost2010Prop55
280
     0
102
RTVSPost2010PropOp55
 70
     0
102
RTVSPost2010Prop56
140
1.0
102
RTVSPost2010PropOp56
 70
     0
102
RTVSPost2010Prop57
140
1.0
102
RTVSPost2010PropOp57
 70
     0
  0
XRECORD
  5
10DA6
102
{ACAD_REACTORS
330
10DA5
102
}
330
10DA5
100
AcDbXrecord
280
     1
102
RTVSPost2010Prop28
280
     0
102
RTVSPost2010PropOp28
 70
     1
102
RTVSPost2010Prop29
280
     1
102
RTVSPost2010PropOp29
 70
     1
102
RTVSPost2010Prop30
280
     1
102
RTVSPost2010PropOp30
 70
     1
102
RTVSPost2010Prop31
280
     0
102
RTVSPost2010PropOp31
 70
     1
102
RTVSPost2010Prop32
280
     0
102
RTVSPost2010PropOp32
 70
     1
102
RTVSPost2010Prop33
280
     0
102
RTVSPost2010PropOp33
 70
     1
102
RTVSPost2010Prop34
280
     0
102
RTVSPost2010PropOp34
 70
     1
102
RTVSPost2010Prop35
280
     0
102
RTVSPost2010PropOp35
 70
     1
102
RTVSPost2010Prop36
280
     0
102
RTVSPost2010PropOp36
 70
     1
102
RTVSPost2010Prop37
 90
       50
102
RTVSPost2010PropOp37
 70
     1
102
RTVSPost2010Prop38
140
0.0
102
RTVSPost2010PropOp38
 70
     1
102
RTVSPost2010Prop39
140
1.0
102
RTVSPost2010PropOp39
 70
     1
102
RTVSPost2010Prop40
 90
        0
102
RTVSPost2010PropOp40
 70
     1
102
RTVSPost2010Prop41ColorIndex
 90
       18
102
RTVSPost2010Prop41ColorRGB
 90
        0
102
RTVSPost2010PropOp41
 70
     1
102
RTVSPost2010Prop42
 90
       50
102
RTVSPost2010PropOp42
 70
     1
102
RTVSPost2010Prop43
 90
        3
102
RTVSPost2010PropOp43
 70
     1
102
RTVSPost2010Prop44ColorIndex
 90
        5
102
RTVSPost2010Prop44ColorRGB
 90
      255
102
RTVSPost2010PropOp44
 70
     1
102
RTVSPost2010Prop45
280
     0
102
RTVSPost2010PropOp45
 70
     1
102
RTVSPost2010Prop46
 90
       50
102
RTVSPost2010PropOp46
 70
     1
102
RTVSPost2010Prop47
 90
       50
102
RTVSPost2010PropOp47
 70
     1
102
RTVSPost2010Prop48
 90
       50
102
RTVSPost2010PropOp48
 70
     1
102
RTVSPost2010Prop49
280
     0
102
RTVSPost2010PropOp49
 70
     1
102
RTVSPost2010Prop50
 90
       50
102
RTVSPost2010PropOp50
 70
     1
102
RTVSPost2010Prop51ColorIndex
 90
      256
102
RTVSPost2010Prop51ColorRGB
 90
-16777216
102
RTVSPost2010PropOp51
 70
     0
102
RTVSPost2010Prop52
140
1.0
102
RTVSPost2010PropOp52
 70
     0
102
RTVSPost2010Prop53
 90
        2
102
RTVSPost2010PropOp53
 70
     1
102
RTVSPost2010Prop54
  1
strokes_ogs.tif
102
RTVSPost2010PropOp54
 70
     1
102
RTVSPost2010Prop55
280
     0
102
RTVSPost2010PropOp55
 70
     1
102
RTVSPost2010Prop56
140
1.0
102
RTVSPost2010PropOp56
 70
     1
102
RTVSPost2010Prop57
140
1.0
102
RTVSPost2010PropOp57
 70
     1
  0
XRECORD
  5
10DB8
102
{ACAD_REACTORS
330
10DB7
102
}
330
10DB7
100
AcDbXrecord
280
     1
102
RTVSPost2010Prop28
280
     0
102
RTVSPost2010PropOp28
 70
     0
102
RTVSPost2010Prop29
280
     1
102
RTVSPost2010PropOp29
 70
     0
102
RTVSPost2010Prop30
280
     1
102
RTVSPost2010PropOp30
 70
     0
102
RTVSPost2010Prop31
280
     0
102
RTVSPost2010PropOp31
 70
     0
102
RTVSPost2010Prop32
280
     0
102
RTVSPost2010PropOp32
 70
     0
102
RTVSPost2010Prop33
280
     0
102
RTVSPost2010PropOp33
 70
     0
102
RTVSPost2010Prop34
280
     0
102
RTVSPost2010PropOp34
 70
     0
102
RTVSPost2010Prop35
280
     0
102
RTVSPost2010PropOp35
 70
     0
102
RTVSPost2010Prop36
280
     0
102
RTVSPost2010PropOp36
 70
     0
102
RTVSPost2010Prop37
 90
       50
102
RTVSPost2010PropOp37
 70
     0
102
RTVSPost2010Prop38
140
0.0
102
RTVSPost2010PropOp38
 70
     0
102
RTVSPost2010Prop39
140
1.0
102
RTVSPost2010PropOp39
 70
     0
102
RTVSPost2010Prop40
 90
        0
102
RTVSPost2010PropOp40
 70
     0
102
RTVSPost2010Prop41ColorIndex
 90
       18
102
RTVSPost2010Prop41ColorRGB
 90
        0
102
RTVSPost2010PropOp41
 70
     0
102
RTVSPost2010Prop42
 90
       50
102
RTVSPost2010PropOp42
 70
     0
102
RTVSPost2010Prop43
 90
        3
102
RTVSPost2010PropOp43
 70
     0
102
RTVSPost2010Prop44ColorIndex
 90
        5
102
RTVSPost2010Prop44ColorRGB
 90
      255
102
RTVSPost2010PropOp44
 70
     0
102
RTVSPost2010Prop45
280
     0
102
RTVSPost2010PropOp45
 70
     0
102
RTVSPost2010Prop46
 90
       50
102
RTVSPost2010PropOp46
 70
     0
102
RTVSPost2010Prop47
 90
       50
102
RTVSPost2010PropOp47
 70
     0
102
RTVSPost2010Prop48
 90
       50
102
RTVSPost2010PropOp48
 70
     0
102
RTVSPost2010Prop49
280
     0
102
RTVSPost2010PropOp49
 70
     0
102
RTVSPost2010Prop50
 90
       50
102
RTVSPost2010PropOp50
 70
     0
102
RTVSPost2010Prop51ColorIndex
 90
      256
102
RTVSPost2010Prop51ColorRGB
 90
-16777216
102
RTVSPost2010PropOp51
 70
     0
102
RTVSPost2010Prop52
140
1.0
102
RTVSPost2010PropOp52
 70
     0
102
RTVSPost2010Prop53
 90
        2
102
RTVSPost2010PropOp53
 70
     0
102
RTVSPost2010Prop54
  1
strokes_ogs.tif
102
RTVSPost2010PropOp54
 70
     0
102
RTVSPost2010Prop55
280
     0
102
RTVSPost2010PropOp55
 70
     0
102
RTVSPost2010Prop56
140
1.0
102
RTVSPost2010PropOp56
 70
     0
102
RTVSPost2010Prop57
140
1.0
102
RTVSPost2010PropOp57
 70
     0
  0
XRECORD
  5
10D9E
102
{ACAD_REACTORS
330
10D9D
102
}
330
10D9D
100
AcDbXrecord
280
     1
102
RTVSPost2010Prop28
280
     0
102
RTVSPost2010PropOp28
 70
     1
102
RTVSPost2010Prop29
280
     1
102
RTVSPost2010PropOp29
 70
     1
102
RTVSPost2010Prop30
280
     1
102
RTVSPost2010PropOp30
 70
     1
102
RTVSPost2010Prop31
280
     0
102
RTVSPost2010PropOp31
 70
     1
102
RTVSPost2010Prop32
280
     0
102
RTVSPost2010PropOp32
 70
     1
102
RTVSPost2010Prop33
280
     0
102
RTVSPost2010PropOp33
 70
     1
102
RTVSPost2010Prop34
280
     0
102
RTVSPost2010PropOp34
 70
     1
102
RTVSPost2010Prop35
280
     0
102
RTVSPost2010PropOp35
 70
     1
102
RTVSPost2010Prop36
280
     0
102
RTVSPost2010PropOp36
 70
     1
102
RTVSPost2010Prop37
 90
       50
102
RTVSPost2010PropOp37
 70
     1
102
RTVSPost2010Prop38
140
0.0
102
RTVSPost2010PropOp38
 70
     1
102
RTVSPost2010Prop39
140
1.0
102
RTVSPost2010PropOp39
 70
     1
102
RTVSPost2010Prop40
 90
        0
102
RTVSPost2010PropOp40
 70
     1
102
RTVSPost2010Prop41ColorIndex
 90
       18
102
RTVSPost2010Prop41ColorRGB
 90
        0
102
RTVSPost2010PropOp41
 70
     1
102
RTVSPost2010Prop42
 90
       50
102
RTVSPost2010PropOp42
 70
     1
102
RTVSPost2010Prop43
 90
        3
102
RTVSPost2010PropOp43
 70
     1
102
RTVSPost2010Prop44ColorIndex
 90
        5
102
RTVSPost2010Prop44ColorRGB
 90
      255
102
RTVSPost2010PropOp44
 70
     1
102
RTVSPost2010Prop45
280
     0
102
RTVSPost2010PropOp45
 70
     1
102
RTVSPost2010Prop46
 90
       50
102
RTVSPost2010PropOp46
 70
     1
102
RTVSPost2010Prop47
 90
       50
102
RTVSPost2010PropOp47
 70
     1
102
RTVSPost2010Prop48
 90
       50
102
RTVSPost2010PropOp48
 70
     1
102
RTVSPost2010Prop49
280
     0
102
RTVSPost2010PropOp49
 70
     1
102
RTVSPost2010Prop50
 90
       50
102
RTVSPost2010PropOp50
 70
     1
102
RTVSPost2010Prop51ColorIndex
 90
      256
102
RTVSPost2010Prop51ColorRGB
 90
-16777216
102
RTVSPost2010PropOp51
 70
     0
102
RTVSPost2010Prop52
140
1.0
102
RTVSPost2010PropOp52
 70
     0
102
RTVSPost2010Prop53
 90
        2
102
RTVSPost2010PropOp53
 70
     1
102
RTVSPost2010Prop54
  1
strokes_ogs.tif
102
RTVSPost2010PropOp54
 70
     1
102
RTVSPost2010Prop55
280
     0
102
RTVSPost2010PropOp55
 70
     1
102
RTVSPost2010Prop56
140
1.0
102
RTVSPost2010PropOp56
 70
     1
102
RTVSPost2010Prop57
140
1.0
102
RTVSPost2010PropOp57
 70
     1
  0
XRECORD
  5
10DB4
102
{ACAD_REACTORS
330
10DB3
102
}
330
10DB3
100
AcDbXrecord
280
     1
102
RTVSPost2010Prop28
280
     0
102
RTVSPost2010PropOp28
 70
     1
102
RTVSPost2010Prop29
280
     1
102
RTVSPost2010PropOp29
 70
     1
102
RTVSPost2010Prop30
280
     1
102
RTVSPost2010PropOp30
 70
     1
102
RTVSPost2010Prop31
280
     0
102
RTVSPost2010PropOp31
 70
     1
102
RTVSPost2010Prop32
280
     0
102
RTVSPost2010PropOp32
 70
     1
102
RTVSPost2010Prop33
280
     0
102
RTVSPost2010PropOp33
 70
     1
102
RTVSPost2010Prop34
280
     0
102
RTVSPost2010PropOp34
 70
     1
102
RTVSPost2010Prop35
280
     0
102
RTVSPost2010PropOp35
 70
     1
102
RTVSPost2010Prop36
280
     0
102
RTVSPost2010PropOp36
 70
     1
102
RTVSPost2010Prop37
 90
       50
102
RTVSPost2010PropOp37
 70
     1
102
RTVSPost2010Prop38
140
0.0
102
RTVSPost2010PropOp38
 70
     1
102
RTVSPost2010Prop39
140
1.0
102
RTVSPost2010PropOp39
 70
     1
102
RTVSPost2010Prop40
 90
        0
102
RTVSPost2010PropOp40
 70
     1
102
RTVSPost2010Prop41ColorIndex
 90
       18
102
RTVSPost2010Prop41ColorRGB
 90
        0
102
RTVSPost2010PropOp41
 70
     1
102
RTVSPost2010Prop42
 90
       50
102
RTVSPost2010PropOp42
 70
     1
102
RTVSPost2010Prop43
 90
        3
102
RTVSPost2010PropOp43
 70
     1
102
RTVSPost2010Prop44ColorIndex
 90
        5
102
RTVSPost2010Prop44ColorRGB
 90
      255
102
RTVSPost2010PropOp44
 70
     1
102
RTVSPost2010Prop45
280
     0
102
RTVSPost2010PropOp45
 70
     1
102
RTVSPost2010Prop46
 90
       50
102
RTVSPost2010PropOp46
 70
     1
102
RTVSPost2010Prop47
 90
       50
102
RTVSPost2010PropOp47
 70
     1
102
RTVSPost2010Prop48
 90
       50
102
RTVSPost2010PropOp48
 70
     1
102
RTVSPost2010Prop49
280
     0
102
RTVSPost2010PropOp49
 70
     1
102
RTVSPost2010Prop50
 90
       50
102
RTVSPost2010PropOp50
 70
     1
102
RTVSPost2010Prop51ColorIndex
 90
      256
102
RTVSPost2010Prop51ColorRGB
 90
-16777216
102
RTVSPost2010PropOp51
 70
     0
102
RTVSPost2010Prop52
140
1.0
102
RTVSPost2010PropOp52
 70
     0
102
RTVSPost2010Prop53
 90
        2
102
RTVSPost2010PropOp53
 70
     1
102
RTVSPost2010Prop54
  1
strokes_ogs.tif
102
RTVSPost2010PropOp54
 70
     1
102
RTVSPost2010Prop55
280
     0
102
RTVSPost2010PropOp55
 70
     1
102
RTVSPost2010Prop56
140
1.0
102
RTVSPost2010PropOp56
 70
     1
102
RTVSPost2010Prop57
140
1.0
102
RTVSPost2010PropOp57
 70
     1
  0
XRECORD
  5
10DB2
102
{ACAD_REACTORS
330
10DB1
102
}
330
10DB1
100
AcDbXrecord
280
     1
102
RTVSPost2010Prop28
280
     0
102
RTVSPost2010PropOp28
 70
     1
102
RTVSPost2010Prop29
280
     1
102
RTVSPost2010PropOp29
 70
     1
102
RTVSPost2010Prop30
280
     1
102
RTVSPost2010PropOp30
 70
     1
102
RTVSPost2010Prop31
280
     0
102
RTVSPost2010PropOp31
 70
     1
102
RTVSPost2010Prop32
280
     0
102
RTVSPost2010PropOp32
 70
     1
102
RTVSPost2010Prop33
280
     0
102
RTVSPost2010PropOp33
 70
     1
102
RTVSPost2010Prop34
280
     0
102
RTVSPost2010PropOp34
 70
     1
102
RTVSPost2010Prop35
280
     0
102
RTVSPost2010PropOp35
 70
     1
102
RTVSPost2010Prop36
280
     0
102
RTVSPost2010PropOp36
 70
     1
102
RTVSPost2010Prop37
 90
       50
102
RTVSPost2010PropOp37
 70
     1
102
RTVSPost2010Prop38
140
0.0
102
RTVSPost2010PropOp38
 70
     1
102
RTVSPost2010Prop39
140
1.0
102
RTVSPost2010PropOp39
 70
     1
102
RTVSPost2010Prop40
 90
        0
102
RTVSPost2010PropOp40
 70
     1
102
RTVSPost2010Prop41ColorIndex
 90
       18
102
RTVSPost2010Prop41ColorRGB
 90
        0
102
RTVSPost2010PropOp41
 70
     1
102
RTVSPost2010Prop42
 90
       50
102
RTVSPost2010PropOp42
 70
     1
102
RTVSPost2010Prop43
 90
        3
102
RTVSPost2010PropOp43
 70
     1
102
RTVSPost2010Prop44ColorIndex
 90
        5
102
RTVSPost2010Prop44ColorRGB
 90
      255
102
RTVSPost2010PropOp44
 70
     1
102
RTVSPost2010Prop45
280
     0
102
RTVSPost2010PropOp45
 70
     1
102
RTVSPost2010Prop46
 90
       50
102
RTVSPost2010PropOp46
 70
     1
102
RTVSPost2010Prop47
 90
       50
102
RTVSPost2010PropOp47
 70
     1
102
RTVSPost2010Prop48
 90
       50
102
RTVSPost2010PropOp48
 70
     1
102
RTVSPost2010Prop49
280
     0
102
RTVSPost2010PropOp49
 70
     1
102
RTVSPost2010Prop50
 90
       50
102
RTVSPost2010PropOp50
 70
     1
102
RTVSPost2010Prop51ColorIndex
 90
      256
102
RTVSPost2010Prop51ColorRGB
 90
-16777216
102
RTVSPost2010PropOp51
 70
     0
102
RTVSPost2010Prop52
140
1.0
102
RTVSPost2010PropOp52
 70
     0
102
RTVSPost2010Prop53
 90
        2
102
RTVSPost2010PropOp53
 70
     1
102
RTVSPost2010Prop54
  1
strokes_ogs.tif
102
RTVSPost2010PropOp54
 70
     1
102
RTVSPost2010Prop55
280
     0
102
RTVSPost2010PropOp55
 70
     1
102
RTVSPost2010Prop56
140
1.0
102
RTVSPost2010PropOp56
 70
     1
102
RTVSPost2010Prop57
140
1.0
102
RTVSPost2010PropOp57
 70
     1
  0
XRECORD
  5
10DAC
102
{ACAD_REACTORS
330
10DAB
102
}
330
10DAB
100
AcDbXrecord
280
     1
102
RTVSPost2010Prop28
280
     0
102
RTVSPost2010PropOp28
 70
     1
102
RTVSPost2010Prop29
280
     1
102
RTVSPost2010PropOp29
 70
     1
102
RTVSPost2010Prop30
280
     1
102
RTVSPost2010PropOp30
 70
     1
102
RTVSPost2010Prop31
280
     0
102
RTVSPost2010PropOp31
 70
     1
102
RTVSPost2010Prop32
280
     0
102
RTVSPost2010PropOp32
 70
     1
102
RTVSPost2010Prop33
280
     0
102
RTVSPost2010PropOp33
 70
     1
102
RTVSPost2010Prop34
280
     0
102
RTVSPost2010PropOp34
 70
     1
102
RTVSPost2010Prop35
280
     0
102
RTVSPost2010PropOp35
 70
     1
102
RTVSPost2010Prop36
280
     0
102
RTVSPost2010PropOp36
 70
     1
102
RTVSPost2010Prop37
 90
       50
102
RTVSPost2010PropOp37
 70
     1
102
RTVSPost2010Prop38
140
0.0
102
RTVSPost2010PropOp38
 70
     1
102
RTVSPost2010Prop39
140
1.0
102
RTVSPost2010PropOp39
 70
     1
102
RTVSPost2010Prop40
 90
        0
102
RTVSPost2010PropOp40
 70
     1
102
RTVSPost2010Prop41ColorIndex
 90
       18
102
RTVSPost2010Prop41ColorRGB
 90
        0
102
RTVSPost2010PropOp41
 70
     1
102
RTVSPost2010Prop42
 90
       50
102
RTVSPost2010PropOp42
 70
     1
102
RTVSPost2010Prop43
 90
        3
102
RTVSPost2010PropOp43
 70
     1
102
RTVSPost2010Prop44ColorIndex
 90
        5
102
RTVSPost2010Prop44ColorRGB
 90
      255
102
RTVSPost2010PropOp44
 70
     1
102
RTVSPost2010Prop45
280
     0
102
RTVSPost2010PropOp45
 70
     1
102
RTVSPost2010Prop46
 90
       50
102
RTVSPost2010PropOp46
 70
     1
102
RTVSPost2010Prop47
 90
       50
102
RTVSPost2010PropOp47
 70
     1
102
RTVSPost2010Prop48
 90
       50
102
RTVSPost2010PropOp48
 70
     1
102
RTVSPost2010Prop49
280
     0
102
RTVSPost2010PropOp49
 70
     1
102
RTVSPost2010Prop50
 90
       50
102
RTVSPost2010PropOp50
 70
     1
102
RTVSPost2010Prop51ColorIndex
 90
      256
102
RTVSPost2010Prop51ColorRGB
 90
-16777216
102
RTVSPost2010PropOp51
 70
     0
102
RTVSPost2010Prop52
140
1.0
102
RTVSPost2010PropOp52
 70
     0
102
RTVSPost2010Prop53
 90
        2
102
RTVSPost2010PropOp53
 70
     1
102
RTVSPost2010Prop54
  1
strokes_ogs.tif
102
RTVSPost2010PropOp54
 70
     1
102
RTVSPost2010Prop55
280
     0
102
RTVSPost2010PropOp55
 70
     1
102
RTVSPost2010Prop56
140
1.0
102
RTVSPost2010PropOp56
 70
     1
102
RTVSPost2010Prop57
140
1.0
102
RTVSPost2010PropOp57
 70
     1
  0
XRECORD
  5
10DAE
102
{ACAD_REACTORS
330
10DAD
102
}
330
10DAD
100
AcDbXrecord
280
     1
102
RTVSPost2010Prop28
280
     0
102
RTVSPost2010PropOp28
 70
     1
102
RTVSPost2010Prop29
280
     1
102
RTVSPost2010PropOp29
 70
     1
102
RTVSPost2010Prop30
280
     1
102
RTVSPost2010PropOp30
 70
     1
102
RTVSPost2010Prop31
280
     0
102
RTVSPost2010PropOp31
 70
     1
102
RTVSPost2010Prop32
280
     0
102
RTVSPost2010PropOp32
 70
     1
102
RTVSPost2010Prop33
280
     0
102
RTVSPost2010PropOp33
 70
     1
102
RTVSPost2010Prop34
280
     0
102
RTVSPost2010PropOp34
 70
     1
102
RTVSPost2010Prop35
280
     0
102
RTVSPost2010PropOp35
 70
     1
102
RTVSPost2010Prop36
280
     0
102
RTVSPost2010PropOp36
 70
     1
102
RTVSPost2010Prop37
 90
       50
102
RTVSPost2010PropOp37
 70
     1
102
RTVSPost2010Prop38
140
0.0
102
RTVSPost2010PropOp38
 70
     1
102
RTVSPost2010Prop39
140
1.0
102
RTVSPost2010PropOp39
 70
     1
102
RTVSPost2010Prop40
 90
        0
102
RTVSPost2010PropOp40
 70
     1
102
RTVSPost2010Prop41ColorIndex
 90
       18
102
RTVSPost2010Prop41ColorRGB
 90
        0
102
RTVSPost2010PropOp41
 70
     1
102
RTVSPost2010Prop42
 90
       50
102
RTVSPost2010PropOp42
 70
     1
102
RTVSPost2010Prop43
 90
        3
102
RTVSPost2010PropOp43
 70
     1
102
RTVSPost2010Prop44ColorIndex
 90
        5
102
RTVSPost2010Prop44ColorRGB
 90
      255
102
RTVSPost2010PropOp44
 70
     1
102
RTVSPost2010Prop45
280
     0
102
RTVSPost2010PropOp45
 70
     1
102
RTVSPost2010Prop46
 90
       50
102
RTVSPost2010PropOp46
 70
     1
102
RTVSPost2010Prop47
 90
       50
102
RTVSPost2010PropOp47
 70
     1
102
RTVSPost2010Prop48
 90
       50
102
RTVSPost2010PropOp48
 70
     1
102
RTVSPost2010Prop49
280
     0
102
RTVSPost2010PropOp49
 70
     1
102
RTVSPost2010Prop50
 90
       50
102
RTVSPost2010PropOp50
 70
     1
102
RTVSPost2010Prop51ColorIndex
 90
      256
102
RTVSPost2010Prop51ColorRGB
 90
-16777216
102
RTVSPost2010PropOp51
 70
     0
102
RTVSPost2010Prop52
140
1.0
102
RTVSPost2010PropOp52
 70
     0
102
RTVSPost2010Prop53
 90
        2
102
RTVSPost2010PropOp53
 70
     1
102
RTVSPost2010Prop54
  1
strokes_ogs.tif
102
RTVSPost2010PropOp54
 70
     1
102
RTVSPost2010Prop55
280
     0
102
RTVSPost2010PropOp55
 70
     1
102
RTVSPost2010Prop56
140
1.0
102
RTVSPost2010PropOp56
 70
     1
102
RTVSPost2010Prop57
140
1.0
102
RTVSPost2010PropOp57
 70
     1
  0
XRECORD
  5
10DA4
102
{ACAD_REACTORS
330
10DA3
102
}
330
10DA3
100
AcDbXrecord
280
     1
102
RTVSPost2010Prop28
280
     0
102
RTVSPost2010PropOp28
 70
     1
102
RTVSPost2010Prop29
280
     1
102
RTVSPost2010PropOp29
 70
     1
102
RTVSPost2010Prop30
280
     1
102
RTVSPost2010PropOp30
 70
     1
102
RTVSPost2010Prop31
280
     0
102
RTVSPost2010PropOp31
 70
     1
102
RTVSPost2010Prop32
280
     0
102
RTVSPost2010PropOp32
 70
     1
102
RTVSPost2010Prop33
280
     0
102
RTVSPost2010PropOp33
 70
     1
102
RTVSPost2010Prop34
280
     0
102
RTVSPost2010PropOp34
 70
     1
102
RTVSPost2010Prop35
280
     0
102
RTVSPost2010PropOp35
 70
     1
102
RTVSPost2010Prop36
280
     0
102
RTVSPost2010PropOp36
 70
     1
102
RTVSPost2010Prop37
 90
       50
102
RTVSPost2010PropOp37
 70
     1
102
RTVSPost2010Prop38
140
0.0
102
RTVSPost2010PropOp38
 70
     1
102
RTVSPost2010Prop39
140
1.0
102
RTVSPost2010PropOp39
 70
     1
102
RTVSPost2010Prop40
 90
        0
102
RTVSPost2010PropOp40
 70
     1
102
RTVSPost2010Prop41ColorIndex
 90
       18
102
RTVSPost2010Prop41ColorRGB
 90
        0
102
RTVSPost2010PropOp41
 70
     1
102
RTVSPost2010Prop42
 90
       50
102
RTVSPost2010PropOp42
 70
     1
102
RTVSPost2010Prop43
 90
        3
102
RTVSPost2010PropOp43
 70
     1
102
RTVSPost2010Prop44ColorIndex
 90
        5
102
RTVSPost2010Prop44ColorRGB
 90
      255
102
RTVSPost2010PropOp44
 70
     1
102
RTVSPost2010Prop45
280
     0
102
RTVSPost2010PropOp45
 70
     1
102
RTVSPost2010Prop46
 90
       50
102
RTVSPost2010PropOp46
 70
     1
102
RTVSPost2010Prop47
 90
       50
102
RTVSPost2010PropOp47
 70
     1
102
RTVSPost2010Prop48
 90
       50
102
RTVSPost2010PropOp48
 70
     1
102
RTVSPost2010Prop49
280
     0
102
RTVSPost2010PropOp49
 70
     1
102
RTVSPost2010Prop50
 90
       50
102
RTVSPost2010PropOp50
 70
     1
102
RTVSPost2010Prop51ColorIndex
 90
      256
102
RTVSPost2010Prop51ColorRGB
 90
-16777216
102
RTVSPost2010PropOp51
 70
     0
102
RTVSPost2010Prop52
140
1.0
102
RTVSPost2010PropOp52
 70
     0
102
RTVSPost2010Prop53
 90
        2
102
RTVSPost2010PropOp53
 70
     1
102
RTVSPost2010Prop54
  1
strokes_ogs.tif
102
RTVSPost2010PropOp54
 70
     1
102
RTVSPost2010Prop55
280
     0
102
RTVSPost2010PropOp55
 70
     1
102
RTVSPost2010Prop56
140
1.0
102
RTVSPost2010PropOp56
 70
     1
102
RTVSPost2010Prop57
140
1.0
102
RTVSPost2010PropOp57
 70
     1
  0
XRECORD
  5
10D98
102
{ACAD_REACTORS
330
10D97
102
}
330
10D97
100
AcDbXrecord
280
     1
102
RTVSPost2010Prop28
280
     0
102
RTVSPost2010PropOp28
 70
     1
102
RTVSPost2010Prop29
280
     1
102
RTVSPost2010PropOp29
 70
     1
102
RTVSPost2010Prop30
280
     1
102
RTVSPost2010PropOp30
 70
     1
102
RTVSPost2010Prop31
280
     0
102
RTVSPost2010PropOp31
 70
     1
102
RTVSPost2010Prop32
280
     0
102
RTVSPost2010PropOp32
 70
     1
102
RTVSPost2010Prop33
280
     0
102
RTVSPost2010PropOp33
 70
     1
102
RTVSPost2010Prop34
280
     0
102
RTVSPost2010PropOp34
 70
     1
102
RTVSPost2010Prop35
280
     0
102
RTVSPost2010PropOp35
 70
     1
102
RTVSPost2010Prop36
280
     0
102
RTVSPost2010PropOp36
 70
     1
102
RTVSPost2010Prop37
 90
       50
102
RTVSPost2010PropOp37
 70
     1
102
RTVSPost2010Prop38
140
0.0
102
RTVSPost2010PropOp38
 70
     1
102
RTVSPost2010Prop39
140
1.0
102
RTVSPost2010PropOp39
 70
     1
102
RTVSPost2010Prop40
 90
        0
102
RTVSPost2010PropOp40
 70
     1
102
RTVSPost2010Prop41ColorIndex
 90
       18
102
RTVSPost2010Prop41ColorRGB
 90
        0
102
RTVSPost2010PropOp41
 70
     1
102
RTVSPost2010Prop42
 90
       50
102
RTVSPost2010PropOp42
 70
     1
102
RTVSPost2010Prop43
 90
        3
102
RTVSPost2010PropOp43
 70
     1
102
RTVSPost2010Prop44ColorIndex
 90
        5
102
RTVSPost2010Prop44ColorRGB
 90
      255
102
RTVSPost2010PropOp44
 70
     1
102
RTVSPost2010Prop45
280
     0
102
RTVSPost2010PropOp45
 70
     1
102
RTVSPost2010Prop46
 90
       50
102
RTVSPost2010PropOp46
 70
     1
102
RTVSPost2010Prop47
 90
       50
102
RTVSPost2010PropOp47
 70
     1
102
RTVSPost2010Prop48
 90
       50
102
RTVSPost2010PropOp48
 70
     1
102
RTVSPost2010Prop49
280
     0
102
RTVSPost2010PropOp49
 70
     1
102
RTVSPost2010Prop50
 90
       50
102
RTVSPost2010PropOp50
 70
     1
102
RTVSPost2010Prop51ColorIndex
 90
      256
102
RTVSPost2010Prop51ColorRGB
 90
-16777216
102
RTVSPost2010PropOp51
 70
     0
102
RTVSPost2010Prop52
140
1.0
102
RTVSPost2010PropOp52
 70
     0
102
RTVSPost2010Prop53
 90
        2
102
RTVSPost2010PropOp53
 70
     1
102
RTVSPost2010Prop54
  1
strokes_ogs.tif
102
RTVSPost2010PropOp54
 70
     1
102
RTVSPost2010Prop55
280
     0
102
RTVSPost2010PropOp55
 70
     1
102
RTVSPost2010Prop56
140
1.0
102
RTVSPost2010PropOp56
 70
     1
102
RTVSPost2010Prop57
140
1.0
102
RTVSPost2010PropOp57
 70
     1
  0
XRECORD
  5
10DB0
102
{ACAD_REACTORS
330
10DAF
102
}
330
10DAF
100
AcDbXrecord
280
     1
102
RTVSPost2010Prop28
280
     0
102
RTVSPost2010PropOp28
 70
     1
102
RTVSPost2010Prop29
280
     1
102
RTVSPost2010PropOp29
 70
     1
102
RTVSPost2010Prop30
280
     1
102
RTVSPost2010PropOp30
 70
     1
102
RTVSPost2010Prop31
280
     0
102
RTVSPost2010PropOp31
 70
     1
102
RTVSPost2010Prop32
280
     0
102
RTVSPost2010PropOp32
 70
     1
102
RTVSPost2010Prop33
280
     0
102
RTVSPost2010PropOp33
 70
     1
102
RTVSPost2010Prop34
280
     0
102
RTVSPost2010PropOp34
 70
     1
102
RTVSPost2010Prop35
280
     0
102
RTVSPost2010PropOp35
 70
     1
102
RTVSPost2010Prop36
280
     0
102
RTVSPost2010PropOp36
 70
     1
102
RTVSPost2010Prop37
 90
       50
102
RTVSPost2010PropOp37
 70
     1
102
RTVSPost2010Prop38
140
0.0
102
RTVSPost2010PropOp38
 70
     1
102
RTVSPost2010Prop39
140
1.0
102
RTVSPost2010PropOp39
 70
     1
102
RTVSPost2010Prop40
 90
        0
102
RTVSPost2010PropOp40
 70
     1
102
RTVSPost2010Prop41ColorIndex
 90
       18
102
RTVSPost2010Prop41ColorRGB
 90
        0
102
RTVSPost2010PropOp41
 70
     1
102
RTVSPost2010Prop42
 90
       50
102
RTVSPost2010PropOp42
 70
     1
102
RTVSPost2010Prop43
 90
        3
102
RTVSPost2010PropOp43
 70
     1
102
RTVSPost2010Prop44ColorIndex
 90
        5
102
RTVSPost2010Prop44ColorRGB
 90
      255
102
RTVSPost2010PropOp44
 70
     1
102
RTVSPost2010Prop45
280
     0
102
RTVSPost2010PropOp45
 70
     1
102
RTVSPost2010Prop46
 90
       50
102
RTVSPost2010PropOp46
 70
     1
102
RTVSPost2010Prop47
 90
       50
102
RTVSPost2010PropOp47
 70
     1
102
RTVSPost2010Prop48
 90
       50
102
RTVSPost2010PropOp48
 70
     1
102
RTVSPost2010Prop49
280
     0
102
RTVSPost2010PropOp49
 70
     1
102
RTVSPost2010Prop50
 90
       50
102
RTVSPost2010PropOp50
 70
     1
102
RTVSPost2010Prop51ColorIndex
 90
      256
102
RTVSPost2010Prop51ColorRGB
 90
-16777216
102
RTVSPost2010PropOp51
 70
     0
102
RTVSPost2010Prop52
140
1.0
102
RTVSPost2010PropOp52
 70
     0
102
RTVSPost2010Prop53
 90
        2
102
RTVSPost2010PropOp53
 70
     1
102
RTVSPost2010Prop54
  1
strokes_ogs.tif
102
RTVSPost2010PropOp54
 70
     1
102
RTVSPost2010Prop55
280
     0
102
RTVSPost2010PropOp55
 70
     1
102
RTVSPost2010Prop56
140
1.0
102
RTVSPost2010PropOp56
 70
     1
102
RTVSPost2010Prop57
140
1.0
102
RTVSPost2010PropOp57
 70
     1
  0
ENDSEC
  0
EOF
